Limp Bizkit - Eat You Alive Chords & Tabs

 

Eat You Alive Chords & Tabs

Limp Bizkit Chords & Tabs

Version: 6 Type: Tab 0 ratings
1 star 2 stars 3 stars 4 stars 5 stars
comments

Eat You Alive Tab

++++++++++++++++++++++++++++++++++++++++++++++++++++
----------------------------------------------------
Cancion  : Eat you alive
Banda    : Limp Bizkit
Tableado : Emilio cerda ; astrototote@hotmail.com 
----------------------------------------------------
++++++++++++++++++++++++++++++++++++++++++++++++++++
Esta es mi version del tema " Eat you alive " de 
"limp Bizkit ".Si tienen alguna duda o cren que el 
tab tiene algun erro(que debe tenerlo)solo escriban a: 
+++++++++[[[[[astrototte@hotmail.com ]]]]]++++++++++
---------------------------------------------------- 
*[Recuerda que la 6 cuerda (E)mi se baja a (c#) do#]*
 
 Intro Enjoy chilE!!
(Guitarra FuLL!! distorcion)
e|-----------------|-----------------|----------------|------------|
b|-----------------|-----------------|----------------|------------|
g|-----------------|-----------------|----------------|------------|
d|-----------------|-----------------|----------------|------------|
a|-----------------|-----------------|----------------|------------|
c#---2-2-2/0-3-0-3-|---2-2-2/0-3-0-3-|--2-2-2/0-3-0-3-|--2-2-2-0-2-|!!

(Entra bateria) [[[[astrototote@hotmail.com]]]]
Verso 1
e|----------------|-----------------|----------------|-
b|----------------|-----------------|----------------|-
g|----------------|-----------------|----------------|-
d|----------------|-----------------|----------------|-
a|----------------|-----------------|----------------|-
c#--2-2-2/0-3-0-3-|---2-2-2/0-3-0-3-|--2-2-2/0-3-0-3-|-

|----------------|
|----------------|
|----------------|
|----------------|
|----------------|
|--2-2-2/0-3-0-3-|!!

(bajar distorcion) 
Verso 2
(X2) ..Heyyyyyy!! you...
e|----------------|--------------|----------------|-----------|
b|----------------|--------------|----------------|-----------|
g|----------------|--------------|----------------|-----------|
d|----------------|--------------|----------------|-----------|
a|----------------|--------------|----------------|-----------|
c#--2-2-2/0-3-0-3-|---2-2-2/0--2-|--2-2-2/0-3-0-3-|-2-2-2-0-2-|

*[en el verso 3 hay 2 guitarra (creo) una..]* 
*[continua con el verso 2 y la otra verso 3]*

Verso 3  
(X4)                                                              
e|-----------------|-----------------|
b|-----------------|-----------------|
g|----8-8-8~~7-----|----8-8-8~~7-----|
d|----8-8-8--8-----|-----------------|
a|-----------------|-----------------|
c#-----------------|-----------------|

CORO(Guitarra FuLL!! distorcion)
Verso 1(X2)....Id eat you alivEEEEEEEE!!!!!!!!!!
e-----------------|-----------------|----------------|---------------|
b|----------------|-----------------|----------------|---------------|
g|----------------|-----------------|----------------|---------------|
d|----------------|-----------------|----------------|---------------|
a|----------------|-----------------|----------------|---------------|
c#--2-2-2/0-3-0-3-|---2-2-2/0-3-0-3-|--2-2-2/0-3-0-3-|-2-2-2/0-3-0-3-|!!

luego.. Verso 2....Verso 3 CORO!!
                                 
*[recureda do#(C#) vuelve a subirla a Mi(E)en el verso 4 solamente]*
[ Tab from: http://www.guitartabs.cc/tabs/l/limp_bizkit/eat_you_alive_tab_ver_6.html ]
Verso 4 (X3)..Im ZorrY.............. so zorry..
e|---------------|------------|-------------|----------------------|
b|---------------|------------|-------------|----------------------|
g|---------------|------------|-------------|-8-8-8-8-8-8-8-8-8-8--|!!
d|--9-9-9-9-9-9--|--11-11-11--|--13-13-13!--|-8-8-8-8-8-8-8-8-8-8--|!!
a|--9-9-9-9-9-9--|--11-11-11--|--13-13-13!--|-6-6-6-6-6-6-6-6-6-6--|!!
E|--7-7-7-7-7-7--|---9--9--9--|--11-11-11!--|----------------------|

e|---------------|------------|-------------|------|
b|---------------|------------|-------------|------|
g|---------------|------------|-------------|-8~---|
d|--9-9-9-9-9-9--|--11-11-11--|--13-13-13!--|-8~---|
a|--9-9-9-9-9-9--|--11-11-11--|--13-13-13!--|-6~---|
E|--7-7-7-7-7-7--|---9--9--9--|--11-11-11!--|------|....

(solo  bajo)..

+[hay muchas formas de hacer el verso 5,aqui tienes 2]*
Verso 5-1 (Guitarra)
(X3)
e|---------7-----|--------7--------|-------7--------|---7------|
b|-------7---7---|------7----------|-----7---7------|-7---6--4-|
g|---------------|-----------------|----------------|----------|
d|---------------|-----------------|----------------|----------|
a|---------------|-----------------|----------------|----------|
c#---------------|-----------------|----------------|----------|
Verso 5-2 (Guitarra)
(X3)
e|---------------|-----------------|----------------|----------|
b|--------12-----|--------12-------|------12--------|---12-----|
g|----11-----11--|-----11----------|--11-----11-----|-11--11-9-|
d|---------------|-----------------|----------------|----------|
a|---------------|-----------------|----------------|----------|
c#---------------|-----------------|----------------|----------|
Verso 6
(X8)
e|-----------------|-----------------|
b|-----0--0--------|----0---0--------|
g|---4--4--4~~6----|--6---6---6~4----|
d|-----------------|-----------------|
a|-----------------|-----------------|
c#-----------------|-----------------|

luego..Verso 4(X3)..Im ZorrY.............. so zorry..

*[Guitarra FuLL!! distorcion]*

Verso 2
e|------------------|----------------|
b|------------------|----------------|
g|------------------|----------------|
d|------------------|----------------|
a|------------------|----------------|
c#--2-2-2/0-3-0-3!-|---2-2-2/0--2!-|!!

CORO
(Guitarra FuLL!! distorcion)!!
Verso 1....Id eat you alivEEEEEEEE!!!!!!!!!!(and eat you alivE..)
e|----------------|----------------|----------------|---------------|
b|----------------|----------------|----------------|---------------|
g|----------------|----------------|----------------|---------------|
d|----------------|----------------|----------------|---------------|
a|----------------|----------------|----------------|---------------|
c#--2-2-2/0-3-0-3-|--2-2-2/0-3-0-3-|--2-2-2/0-3-0-3-|-2-2-2/0-3-0-3-|!!
...............Id eat you alivEEEEEEEE!!!!!!!!!!(and eat you alivE..)
e|----------------|----------------|----------------|---------------|
b|----------------|----------------|----------------|---------------|
g|----------------|----------------|----------------|---------------|
d|----------------|----------------|----------------|---------------|
a|----------------|----------------|----------------|---------------|
c#--2-2-2/0-3-0-3-|--2-2-2/0-3-0-3-|--2-2-2/0-3-0-3-|-2-2-2/0-3-0-3-|!!
........Id eat you alivE.
e|----------------|------|
b|----------------|------|
g|----------------|------|------------*(fin de la cancion)*
d|----------------|------|		       BY:
a|----------------|------|       [[[[astrototote@hotmail.com]]]] 
c#--2-2-2/0-3-0-3-|---2.-|
Comments