Limp Bizkit - Counterfeit Chords & Tabs

 

Counterfeit Chords & Tabs

Limp Bizkit Chords & Tabs

Version: 2 Type: Tab 0 ratings
1 star 2 stars 3 stars 4 stars 5 stars
comments

Counterfeit Tab

group: Limp bizkit
song: Counterfeit
name: Mike Selbitschka (spaceballx@aol.com)

Tabbed by Mike selbitschka and Chris shiraldi

CounterFeit


Intro: 
C#-------------------------------------------
G#-------------------------------------------
E--------------------------------------------
B--------9-9---------9--6-6--------9-9-------
F#---8-7------8-7--7-----------8-7------8--7-
C#---0-0------0-0--0----0-0----0-0----------- 

Heavy Part:
C#-------------------------------------------
G#-------------------------------------------
E--------------------------------------------
B----3-2-------------3-2---------------------
F#---3-2-------------3-2---------------------
C#---1-0--<3>--<3>---1-0--0--<3>--<4>--<4>---

C#--------------------------------------------------------
G#--------------------------------------------------------
E---------------------------------------------------------
B----3-2-------------3-2----------------------------------
F#---3-2--<2>--<2>---3-2----------------------------------
C#---1-0-------------1-0--<5>-<5>-<4>-<3>-<2.6>-<2.4>-<2>-
[ Tab from: http://www.guitartabs.cc/tabs/l/limp_bizkit/counterfeit_tab_ver_2.html ]
Sustained Power Chords(Only heard in right channel)
C#------------------------
G#------------------------
E-------------------------
B----3--2---3--2----------
F#---3--2---3--2----------
C#---1--0---1--0----------

Other Part:
C#---------------------------------
G#---------------------------------
E----9--10----------4----4/5-------
B------------X---X-----------------
F#---7---8---X---X--2--X-2/3--0----
C#---0---0---X---X--X--------------

C#---------------------------------
G#---------------------------------
E----9--10-----------14--X-X--14---
B------------X-X--X------X-X-------
F#---7---8---X-X--X--12--X-X--12---
C#---0---0---X-X--X----------------

Heavy Single-Note Part
C#-----------------------------------
G#-----------------------------------
E------------------------------------
B------------------------------------
F#-----7-5---------------------------
C#---0-----0-5-7-0-3----0-0-0-2-3-2--

C#-----------------------------------
G#-----------------------------------
E------------------------------------
B------------------------------------
F#-----7-5-------------------7^1/2---
C#---0-----0-5-7-0-3----0--0-0-------

X=Mute
<>=Harmonic
/=Slide
Comments