Limp Bizkit - Counterfeit Chords & Tabs

 

Counterfeit Chords & Tabs

Limp Bizkit Chords & Tabs

Version: 2 Type: Bass Tab 0 ratings
1 star 2 stars 3 stars 4 stars 5 stars
comments

Counterfeit Bass Tab

Limp Bizkit
Counterfeit-Three Dollar Bill Y`all
1997-Flip Records Interscope.
Tabbed by John Caton
Bkr40130@aol.com
===================================
This is the FIVE STRING VERSION for all of those people that went out and
bought one to learn to play like KORN, LIMP BIZKIT, 311, INCUBUS and any
other bands that use `em.

~INTRO~
G|------------|----------------------14--|
D|------------|----------------------14--|
A|------------|--------------------------|
E|------------|--------------------------|
B|--3-2--3-2--|--3-2--3-2--3-2--3-2------|
	      2X 			5X

~CHORUS~
G|--------------------|---------|--------------------|
D|--------------------|---------|--------------------|
A|--------------------|-----7---|--------------------|
E|--------------------|--2H5-5--|--------------------|
B|--3-2-2--2-3-2--22--|---------|--3-2-2--2-3-2--22--|
		     4X        1X                    4X
[ Tab from: http://www.guitartabs.cc/tabs/l/limp_bizkit/counterfeit_btab_ver_2.html ]
~VERSE~
G|---------------------|--------------------|
D|--------12--11--9----|----------12--11----|
A|2/16--14--12--11-10--|--4/16--14--12--11--|
E|---------------------|--------------------|
B|---------------------|--------------------|

~BRIDGE~
G|------18--18----------16--16/18--|
D|----18------18------16----16/18--|
A|--16----16----16--14----14-------|
E|---------------------------------|
B|---------------------------------|

~LONG FILL~
G|-----------------------------------------------------|
D|-----------------------------------------------------|
A|--5-3--------------------------5-3-------------------|
E|-------3H5---------------------------3H5-------------|
B|0-----0---0-3--0-0--0-2H3-2--0-----0-----0-3-0-0--12-|

~ENDING~
G|-----------------------------------6/11-|
D|---------------------12----11-----------|
A|---------------16-14----11----11\7------|
E|----------7/14--------------------------|
B|0-(0)-----------------------------------|

THAT'S IT! LISTEN TO IT A FEW TIMES AND PLAY ALONG, IT'LL MAKE SENSE 
EVENTUALLY.
====================================================================
tabbed: 2000, by The Award Winning Bass Player John Caton Bkr40130@aol.com 
Comments