Limp Bizkit - Build A Bridge Chords & Tabs

 

Build A Bridge Chords & Tabs

Limp Bizkit Chords & Tabs

Version: 1 Type: Tab 0 ratings
1 star 2 stars 3 stars 4 stars 5 stars
comments

Build A Bridge Tab

   
Limp Bizkit
"Build A Bridge"



Tunning C#-F#-B-E-G#-C#





------|-------------------------------------------------------------------|---
------|-------------------------------------------------------------------|---
------|---------0-----------------0---------------0---------------0-------|---
------|-----4-----4---4-------4-----4---4-----4-----4---4-----4-----4---4-|---
------|---2---2-----2-------2---2-----2-----2---2-----2-----2---2-----2---|---
------|-0---------------2b1/2-------------3---------------3---------------|---
         Intro/riff 1  Importnat to bend 1/2 or it wont sound rite            
[ Tab from: http://www.guitartabs.cc/tabs/l/limp_bizkit/build_a_bridge_tab.html ]
--|-------------------------------------|-------------------------------------
--|-------------------------------------|-------------------------------------
--|-------------------------------------|-------------------------------------
--|---00000000-00000000-0000000000000000|-------------------------------------
--|---22222222-44444444-5555555555555555|-------------------------------------
--|---00000000-22222222-3333333333333333|-------------------------------------
        Chours play very lightly                                              

---|----------------------------------|---------------------------------------
---|----------------------------------|---------------------------------------
---|----------------------------------|---------------------------------------
---|-0000000-0000000-0000000000000000-|---------------------------------------
---|-2222222-4444444-2222222222222222-|---------------------------------------
---|-0000000-2222222-3333333333333333-|---------------------------------------
    Chours- Repeat as necesary                                                

--|--0000000-0000000-0000000000000000-|---------------------------------------
--|--0000000-0000000-0000000000000000-|---------------------------------------
--|--0000000-0000000-0000000000000000-|---------------------------------------
--|--0000000-0000000-0000000000000000-|---------------------------------------
--|--2222222-4444444-2222222222222222-|---------------------------------------
--|--0000000-2222222-3333333333333333-|---------------------------------------
     Bridge (Acoustic Guitar)


Comments