Limp Bizkit - Boiler Chords & Tabs

 

Boiler Chords & Tabs

Limp Bizkit Chords & Tabs

Version: 7 Type: Tab 0 ratings
1 star 2 stars 3 stars 4 stars 5 stars
comments

Boiler Tab

   
-------------------------------------------------------------------------------
			     BOILER - Limp Bizkit
-------------------------------------------------------------------------------
Tabbed by: Lirikal	
Email:lirikal2000@hotmail.com

Tuning:E A D G B E

| /  slide up
| \  slide down
| h  hammer-on
| p  pull-off
| ~  vibrato
| +  harmonic
| x  Mute note


INTRO:

e:---------------------------------------------------------------
B:---------------------------------------------------------------
G:---------------------------------------------------------------
D:--6--7----9----11-----7----9----11-----7----9----13----7----9--
A:--x--x----x----x------x----x----x------x----x----x-----x----x--
E:--4--5----7----9------5----7----9------5----7----11----5----7--

[ Tab from: http://www.guitartabs.cc/tabs/l/limp_bizkit/boiler_tab_ver_7.html ]
CHORUS:
                                       x2
e:-|-------------------------------------|--------------------------------------------------
B:-|-------------------------------------|--------------------------------------------------
G:-|*-----------------------------------*|--------------------------------------------------
D:-|*-11-1111-11-1111b--1111-11-11b-11b-*|--7-77-7-77b-77--7-7b-7b---9-99-9-99b-99--9-9b-9b-
A:-|--11-1111-11-11-x---1111-11--x---x---|--7-77-7-7x--77--7-x--x----9-99-9-9x--99--9-x--x--
E:-|---9--9-9--9--9-9b---9-9--9--9b--9b--|--5-55-5-55b-55--5-5b-5b---7-77-7-77b-77--7-7b-7b-


VERSE:
                                                     (w/delay)
e:------------------------------------------------------------
B:------------------------------------------------------------
G:------------------------------------------------------------
D:------11-11-------11-11--11-9-------11-11--9------11-11--9--
A:------------9-----------------------------------------------
E:--9-9---------7-7------7------5-5-------------7-7-----------


INTERLUDE:

e:------------------------------
B:------------------------------
G:------------------------------
D:------------------------------
A:------------------------------
E:--9~------------5~--------7~--

ENJOY IT!!
===============================================================================
Comments