Limp Bizkit - Boiler Chords & Tabs

 

Boiler Chords & Tabs

Limp Bizkit Chords & Tabs

Version: 3 Type: Tab 0 ratings
1 star 2 stars 3 stars 4 stars 5 stars
comments

Boiler Tab

Limp Bizkit 
"Boiler" 
Chocolate Starfish & The Hot Dog Flavored Water 

Intro 
C#------------------------------------------------------------- 
G#------------------------------------------------------------- 
E----7--9--11----5----7--11----5----7--11--17------7----9------ 
B-------------------------------------------------------------- 
F#---5--7---9----3----5---9----3----5---9--15------5----7------ 
C#------------------------------------------------------------- 

Chorus              x2 
C#-------------------|----------------------------------------- 
G#-------------------|----------------------------------------- 
E----9*--9-9-9b-9b---|---5*--5-5-5-5b-5b------7*--7-7-7-7b-7b-- 
B--------------------|----------------------------------------- 
F#---7*--7-7-7b-7b---|---3*--3-3-3-3b-3b------5*--5-5-5-5b-5b-- 
C#-------------------|----------------------------------------- 
     * Play *'ed octaves many times. 
[ Tab from: http://www.guitartabs.cc/tabs/l/limp_bizkit/boiler_tab_ver_3.html ]
Verse (w/ Delay) 
C#------------------------------------------------------------- 
G#------------------------------------------------------------- 
E------9-9--------9-9--9-7-------9-9--7-------9-9--7----------- 
B----------7--------------------------------------------------- 
F#--7-7--------5-5----5-------------------5-5------------------ 
C#--------------------------8-8-------------------------------- 

Bridge 
C#------------------------------------------------------------- 
G#------------------------------------------------------------- 
E-------------------------------------------------------------- 
B----2~~~~--------------------------------------9-------------- 
F#---2~~~~--------------------------------------7-------------- 
C#---0~~~~----------------------------------------------------- 
     ^ Hold till feedback. 

Interlude 
C#------------------------------------------------------------- 
G#------------------------------------------------------------- 
E----9~~~~-9-------9~~~~-9--------5--------7------------------- 
B-------------------------------------------------------------- 
F#---7~~~~-7-------7~~~~-7--------3--------5------------------- 
C#------------------------------------------------------------- 
           ^             ^ 
           Shake whammy bar back and forth
Comments