Limp Bizkit - Boiler Chords & Tabs

 

Boiler Chords & Tabs

Limp Bizkit Chords & Tabs

Version: 2 Type: Bass Tab 0 ratings
1 star 2 stars 3 stars 4 stars 5 stars
comments

Boiler Bass Tab

   
        

        Song:Boiler 
       Band:Limp Bizkit
     Album:chocolate starfish and the hot dog flavored water
Tabed by:Garri-©-garrijohnson@hotmail.com

The begininng of the song is quite easy                          
just try it and you will figure it out 
trust me on that.
Please notice before you start
h=hammer-on
p=pull-of
/=slide

G/--------------------------------------/
D/--------------------------------------/             Riff one
A/-4----0---2--------------------------/
E/--------------------------------------/

Now the difficult part , play this twice in
each session. 
[ Tab from: http://www.guitartabs.cc/tabs/l/limp_bizkit/boiler_btab_ver_2.html ]
G/---------------8-h-9-----------------9-/-11-p-9--------------------------------------------------------/
D/-----------6--------------------------9-----------11-/-7-7-7-7-7-7-/-9-9-9-9-9-9-/11-p-9------------/    Riff two
A/-4--4--4--------------------7--7--7--------------------------------------------9-------------11-/-4---/
E/--------------------------------------------------------------------------------------------------------/

song order:Riff one 
                   Riff two (play twice)
                   Riff one 
                   Riff two (play twice)
                   Riff one
                   Easy part play Riff one 
                   Riff one
                   End play Riff two play only once (solo)

This is 100% wright i promise you 
IF it's played the wright way.

written by:Sam Riwers
tabbed by :Garri-©-garrijohnson@hotmail.com
8/24/2002-
 time- 21:09:31
if you have any queastions at all please contact me garrijohnson@hotmail.com 
Now please enjoy =) .
Comments