Limp Bizkit - Behind Blue Eyes Chords & Tabs

 

Behind Blue Eyes Chords & Tabs

Limp Bizkit Chords & Tabs

Version: 8 Type: Tab 0 ratings
1 star 2 stars 3 stars 4 stars 5 stars
comments

Behind Blue Eyes Tab

   
                       Limp Bizkit - Behind Blue Eyes
                              (The Who cover)

Tabbed By: Kurt.

Standard Tuning (EADGBe)

This is my first tab, so if there's a mistake,
don't hate me. AND! Don't hate me beacause I'm beatufil!


intro | verse 2 & 3 | bridge
e---------0---------------0----------------0---------------0-------
B-----------0---0-----------0---0------3-----3---3-----3-----3---3-
G-------0-----0---------0-----0------2---2-----2-----2---2-----2---
D-----2---------------0------------0---------------0---------------
A---2---------------2----------------------------------------------
E-0---------------3------------------------------------------------


e---------0---------------0---------------0----------------0-------I
B-----3-----3---3-----3-----3---3-----0-----0---0------0-----0---0-I
G-------0-----0---------0-----0---------0-----0----------0-----0---I
D---2---------------2---------------2----------------2-------------I
A-3---------------3---------------0----------------0---------------I
E------------------------------------------------------------------I

[ Tab from: http://www.guitartabs.cc/tabs/l/limp_bizkit/behind_blue_eyes_tab_ver_8.html ]
verse 1 | outro
e---------0---------------0----------------0---------------0-------
B-----------0---0-----------0---0------3-----3---3-----3-----3---3-
G-------0-----0---------0-----0------2---2-----2-----2---2-----2---
D-----2---------------0------------0---------------0---------------
A---2---------------2----------------------------------------------
E-0---------------3------------------------------------------------


e----------0---------------0-----000--0-0-----I
B------3-----3---3-----3-----3---222--2-2-----I
G--------0-----0---------0-----0-222--2-2-----I
D---2----------------2-----------222--2-2-----I
A-3----------------3-------------000--0-0-----I
E---------------------------------------------I


Chorus:
         C D                   G
But my dre-ams they aren't as empty

       C         D        Em
As my conscience seems to be

        B             C
I have hours, only lonely

            D                      A-moll
My love is vengeance that's never free

A-moll: 002210
     B: x2440x
     C: 032010
     D: 000232
    Em: 022000
     G: 320003

Have A nice day!
Comments