Limp Bizkit - Behind Blue Eyes Chords & Tabs

 

Behind Blue Eyes Chords & Tabs

Limp Bizkit Chords & Tabs

Version: 5 Type: Tab 0 ratings
1 star 2 stars 3 stars 4 stars 5 stars
comments

Behind Blue Eyes Tab

   
#----------------------------------PLEASE NOTE---------------------------------#
#This file is the author's own work and represents their interpretation of the #
#song. You may only use this file for private study, scholarship, or research. #
#------------------------------------------------------------------------------#

Behind Blue Eyes
Limp Bizkit
Results may vary

Standard tuning: EADGBE

I think this is an improvement on what was already posted and the lyrics have been added

Intro
Base chords are: Em G Dx2 Cx2 Ax2
                                                                        
E||----------------------|--0-------------------|----------------------|
B||----------------------|-------0---------0----|----------------------|
G||----------------------|------------0---------|----------------------|
D||------------2---------|----------------------|------------0---------|
A||-------2---------2----|----------------------|-------2---------2----|
E||--0-------------------|----------------------|--3-------------------|


                                                                     
--0-------------------|----------------------|--0-------------------|
-------0---------0----|------------3---------|-------3---------3----|
------------0---------|-------2---------2----|------------2---------|
----------------------|--0-------------------|----------------------|
----------------------|----------------------|----------------------|
----------------------|----------------------|----------------------|


                                                                     
----------------------|--0-------------------|----------------------|
------------3---------|-------3---------3----|----------------------|
-------2---------2----|------------2---------|------------0---------|
--0-------------------|----------------------|-------2---------2----|
----------------------|----------------------|--3-------------------|
----------------------|----------------------|----------------------|

[ Tab from: http://www.guitartabs.cc/tabs/l/limp_bizkit/behind_blue_eyes_tab_ver_5.html ]
                                                                     
--0-------------------|----------------------|--0-------------------|
-------0---------0----|----------------------|-------0---------0----|
------------0---------|------------0---------|------------0---------|
----------------------|-------2---------2----|----------------------|
----------------------|--3-------------------|----------------------|
----------------------|----------------------|----------------------|


                                                                     
----------------------|--0-------------------|----------------------|
----------------------|-------0---------0----|----------------------|
------------2---------|------------0---------|------------2---------|
-------2---------2----|----------------------|-------2---------2----|
--0-------------------|----------------------|--0-------------------|
----------------------|----------------------|----------------------|


                               
--0-------------------|
-------0---------0----|
------------0---------|
----------------------|
----------------------|
----------------------|


Verse ("no one knows what is like...")
Same thing, but at the end, behind second C chord we play:

|--0---0---0-----------|
|--0---0---0-----------|
|--2---2---2-----------|
|--2---2---2-----------|
|--0---0---0-----------|
|----------------------|  this is a A chord, play it in "spanish" style:)

Chorus ("but my dreams...")



    Not sure about this
    Bit at all
     C    D    G    G       C    D    Em   Em      B    C    D    A             
E||--0----0----3----3----|--0----0----0----0----|--2----0----2----0----|
B||--1----3----0----0----|--1----3----0----0----|--4----1----3----2----|
G||--0----2----0----0----|--0----2----0----0----|--4----0----2----2----|
D||--2----0----0----0----|--2----0----2----2----|--4----2----0----2----|
A||--3---------2----2----|--3---------2----2----|--2----3---------0----|
E||------------3----3----|------------0----0----|----------------------|   
Comments