Limp Bizkit - Behind Blue Eyes Chords & Tabs

 

Behind Blue Eyes Chords & Tabs

Limp Bizkit Chords & Tabs

Version: 3 Type: Bass Tab 0 ratings
1 star 2 stars 3 stars 4 stars 5 stars
comments

Behind Blue Eyes Bass Tab

   
---------------------------------------------------------------------
	Behind blue eyes        Limp Bizkit
---------------------------------------------------------------------
S t u

Tuning: standard

I'm not sure if this is the correct way to play the song but it definitely fits and 
with the song.

Intro and verse

G|-----------------------------------------------------------------|
D|--------------0----0---------------------------------------------|
A|-----------------------3----3----0----0--------------------------|
E|---0-----3-------------------------------------------------------|
     E     G    D    D   C    C    A    A

Chorus

G|-----------------------------------------------------------------|
D|--------------0000-----------------------0000--------------------|
A|---------3333----------------------3333--------------------------|
E|---------------------3333----------------------00 00000---------|
   But my...dreams aren't s empty
           C C  D  D   G   G         C  C  D  D   E E EEEEE
[ Tab from: http://www.guitartabs.cc/tabs/l/limp_bizkit/behind_blue_eyes_btab_ver_3.html ]
G|------------------------------------------------------------------|
D|-------------------------------0000-------------------------------|
A|---------2222--------3333------------0000-00----------------------|
E|------------------------------------------------------------------|
  I have hours...only lonely
           B  B        C  C      D  D  A  A

Weird l.i.m.p bit.  You can just play the verse/intro but I prefer to play it higher up

G|----------------7---7---5---5-------------------------------------|
D|-----------5---------------------7---7----------------------------|
A|------7-----------------------------------------------------------|
E|------------------------------------------------------------------|
Instead of ending on the 7th fret on the d-string you can end on the 14th fret on the g-string
        E    G    D   D   C   C    A   A
Song Layout:
Intro x1
Verse x2
Chorus x1
Verse x2
Chorus x1
Weird l.i.m.p bit x2
Verse x2
Chorus x1
Don't play in the outro

Well it's o.k. And it's my 1st tab I think I did o.k. Peace out.....whatever
Comments