Limp Bizkit - Back O Da Bus Chords & Tabs

 

Back O Da Bus Chords & Tabs

Limp Bizkit Chords & Tabs

Version: 1 Type: Bass Tab 0 ratings
1 star 2 stars 3 stars 4 stars 5 stars
comments

Back O Da Bus Bass Tab

Song: BACK O DA BUS
Author: LIMP BIZKIT
Tabbed by: ANDREA
E-mail: corey_8@katamail.com

The bass comes when the guitar play the riff for the 3rd time. 
Repeat it for 4 times  

 G:---------------------------------||
 D:-------------0-------------------||
 A:--------3---------------3--------||    " I don't wanna do this... "
 E:---1---------------1---------3---||
 B:---------------------------------||
[ Tab from: http://www.guitartabs.cc/tabs/l/limp_bizkit/back_o_da_bus_btab.html ]
Now play each note 2 times like this:  
 G:------------------------------------------||
 D:---------------0-0-----------------0------||
 A:---------3-3-----------------3-3----------||  " Nobody say it was gonna... "  
 E:---1-1-----------------1-1------------3---||
 B:------------------------------------------||

Then repeat one more time the 1st riff


A very pretty song by Limp. I get it by a magazine's cd, 
I think it's a b-side. Does anybody know the album that 
contain the song? Please e-mail me your answer guys, thanks
Comments