Limp Bizkit - Almost Over Chords & Tabs

 

Almost Over Chords & Tabs

Limp Bizkit Chords & Tabs

Version: 2 Type: Tab 0 ratings
1 star 2 stars 3 stars 4 stars 5 stars
comments

Almost Over Tab

Limp Bizkit
Almost OVer
Results May Vary
Tabber: LB_Guitarist12
Tuning EADGBE
This is a great song and i cant find the tab so i decided to do it myself.
Its probably not 100 percent but its a start.  Please Rate it!

Verse 1 Part 1(learned how to rap as a little boy...)
E-------------------------------------------------|
B-------------------------------------------------|
G------4---------4-----------4 ---------4-4/5/4/5-|
D--------4---------4-----------4------------------|
A-2--2-------2--2-------2--2---------2------------|
E-------------------------------------------------|

Verse 1 and 2 part 2(Learned how to lose as an older man...)
E-------------------|
B-------------------|
G-4-----7-9----7----|  Repeat as needed, I think 3 times
D-4-x16-7-9-x8-7----|x8
A-2-----5-7----5----|
E-------------------|
[ Tab from: http://www.guitartabs.cc/tabs/l/limp_bizkit/almost_over_tab_ver_2.html ]
Pre-Chorus (It's time to blow their minds now baby...)
E--------------|
B-----5--------|
G-4---3-4----7-|  Repeat as needed
D-4---2-4----7-|
A-2-----2----5-|
E--------------|

Chorus (who that is what it say.....)
E--------------------------------------|
B----------5-----------------5----3----|
G-7--4-----3--4-----7--4-----3-x3-2----|x2
D-7--4-x4--2--4-x4--7--4-x4--2----0----|
A-5--2--------2-----5--2---------------|
E--------------------------------------|

Verse 2 Part 1
E-------------------|
B-------------------|
G-4------7-9------7-| Hold each chord for as long as you would play it in part
D-4------7-9------7-| two of the verses.
A-2------5-7------5-|
E-------------------|

Play Verse 1 and 2 part 2

Play Chorus

Bridge( my life is one big dream....)
E-------------------------|
B-------------------------|
G-8-9-8----8-----8-9-8----| Repeat as needed
D-------11-------------11-|
A-------------------------|
E-------------------------|
Thats it. just piece the song together and enjoy.
Comments