Limp Bizkit - Almost Over Chords & Tabs

 

Almost Over Chords & Tabs

Limp Bizkit Chords & Tabs

Version: 1 Type: Tab 0 ratings
1 star 2 stars 3 stars 4 stars 5 stars
comments

Almost Over Tab

   
#----------------------------------PLEASE NOTE---------------------------------#
#This file is the author's own work and represents their interpretation of the #
#song. You may only use this file for private study, scholarship, or research. #
#------------------------------------------------------------------------------#
Limp Bizkit
"Almost Over"

Tuning: Drop D - D A D G B e

Intro/1st Verse:
e|-----------------------------------------------------|
B|-----------------------------------------------------|
G|-----------------------------------------------------|
D|------9--9-----9--9-----9--9-----9--9----------------|
A|-----------------------------------------------------|
D|--9-99-99--9-99-99--9-99-99--9-99-99-----------------|

2nd Verse:
e|-----------------------------------------------------|
B|-----------------------------------------------------|
G|--444444444444444-7-99999999-77777777----------------|
D|--444444444444444-7-99999999-77777777----------------|
A|--222222222222222-5-77777777-55555555----------------|
D|-----------------------------------------------------|

3rd Verse:
e|-----------------------------------------------------|
B|-----------------------------------------------------|
G|--4~-------------7-9~-------7~-----------------------|
D|--4~-------------7-9~-------7~-----------------------|
A|--2~-------------5-7~-------5~-----------------------|
D|-----------------------------------------------------|

Chorus:
e|-----------------------------------------------------|
B|---------------5-------------------------5-5-5-5-33--|
G|--7--4-4-44-44-4--4-4-44-44-7--4-4-44-44-4-4-4-4-22--|
D|--7--4-4-44-44-2--4-4-44-44-7--4-4-44-44-2-2-2-2-00--|
A|--5--2-2-22-22----2-2-22-22-5--2-2-22-22-------------|
D|-----------------------------------------------------|

Bridge:
e|-----------------------------------------------------|
B|-----------------------------------------------------|
G|--8h9p8--8------8-8-8h9p8--8-----8-------------------|
D|------------11----------------11---------------------|
A|-----------------------------------------------------|
D|-----------------------------------------------------|

****************************************************************************************************************************

Limp Bizkit
"9 teen 90 nine"
Tabbed by Rob Stewart (topdawg039@aol.com)  Email me, swear at me, stalk me, whatever.

Standard tuning, down a minor 3rd.
[ Tab from: http://www.guitartabs.cc/tabs/l/limp_bizkit/almost_over_tab.html ]
6th string (lowest) - C#
5th-                  F#
4-                    B
3                     e
2                     G#
1                     C#

Intro                     Riff A

--------------------------|------------------------------------------
--------------------------|------------------------------------------
--------------------------|-------------------------------------------
--------------------------|-----------------------(3)-Power chord the second ending after a couple of repeats.
--------------------------|---------------------1-(3)--------------------
-000000--0--0-0--0-0--x3--|-0-0-3-2-1-0-0-0-3-2---(1)-Repeat.-------------
                           
                           Riff A also used during " So lets make something out of it" part.



Rhythm Figure.  (played during the verses)

-------------------------------------------------------
----------------------------------------------------
-8--------------------------6--------------------------
-7--------------------------7---------------------------
-------------------------------------------------------
------------------------------------------------------
"Fame..................but this stage........." part.


An E5 (011XXX) chord is played during the "we see good things change
and good things go away" part.

Here comes the climax of the song.

-----------------------------------------------------------------------------------
-----------------------------------------------------------------------------------
-9-9-9-9-10-10-9-------------------------------------------------------------------
-6-6-6-6-7--7--6-------------------------------------------------------------------
-7-7-7-7-8--8--7-----------8---------8---------------------------------------------
-0-0-0-0-0--0--0-----0--0--6---0--0--6------X4-------------------------------------
"Bring it on" part.

-----------------------------------------------------------------------------------
-----------------------------------------------------------------------------------
-----------------------------------------------------------------------------------
---2---------3-------2-------2-2----2---2--2---------------------------------------
---2---------3-------2-------2-2----2---2--2----------------------------------------
0--0-------1-1----0--0-------0-0----0---0-------------------------------------------

"You wanna be down with the G shock, f*ck the glam rock" part. And, "dont stop!, its 1999!" part.


NOTE:
(If you want to use this tab on another site, go ahead.  If you think this tab is wrong, shove it up 
your a*s, its 100% correct).
Comments