Limp Bizkit - Almost Over Chords & Tabs

 

Almost Over Chords & Tabs

Limp Bizkit Chords & Tabs

Version: 1 Type: Bass Tab 0 ratings
1 star 2 stars 3 stars 4 stars 5 stars
comments

Almost Over Bass Tab

Limp Bizkit - Almost Over

Dropped B tuning

Intro/Verses:

g-|----------------|----------------||
d-|----------------|----------------||
a-|----------------|----------------||
B-|0-0-0-0-0-0-0-0-|0-0-0-0-0-2-3-6-||
[ Tab from: http://www.guitartabs.cc/tabs/l/limp_bizkit/almost_over_btab.html ]
g-|----------------|----------------||
d-|----------------|----------------||
a-|----------------|----------------||
B-|-5-5-5-5-5-5-5-5|-3-3-3-3-3-3-3-3||

Bridge:

g-|----------------||
d-|----------------||
a-|----------------||
B-|0-----3--5-----3||

Chorus:

g-|----------------|----------------|----------------||
d-|----------------|----------------|----------------||
a-|----------------|----------------|----------------||
B-|--3-0-0-0-0-5-0-|0-0-0-3-0-0-0-0-|5-5-5-5-5-5-5-3-||

Tabbed by PB.
Comments