Lillix - What I Like About You Chords & Tabs

 

What I Like About You Chords & Tabs

Lillix Chords & Tabs

Version: 3 Type: Tab

What I Like About You Tab

**********************************************
        Lillix...What I Like About You
**********************************************

Standard Tunning
   

Intro:

e--------------x----------------------|
B--------------x----------------------|
G--9-8-9-7-7-7-x----------------------|  x4
D--9-9-9-7-7-7-x-7--------------------|
A--7-7-7-5-5-5-x-7--------------------|
E--------------x-5--------------------|

e----------x---x-----------x-------|
B----------x---x-----------x-------|
G----------x---x-7-7-7-7---x-------|  x4
D--2-2-2-2-x-7-x-7-7-7-7-7-x-------|
A--2-2-2-2-x-7-x-5-5-5-5-7-x-------|
E----------x-5-x---------5-x-------|
[ Tab from: http://www.guitartabs.cc/tabs/l/lillix/what_i_like_about_you_tab_ver_3.html ]
Verse:
(What I like about you, you hold me tight)
e----------x---------x---------x----------------------|
B----------x---------x---------x----------------------|
G--9-9-9-9-x---------x-7-7-7-7-x----------------------|  x4
D--9-9-9-9-x-7-7-7-7-x-7-7-7-7-x-7-7-7-7--------------|
A--7-7-7-7-x-7-7-7-7-x-5-5-5-5-x-7-7-7-7--------------|
E----------x-5-5-5-5-x---------x-5-5-5-5--------------|
(Whant to come over to night, YEAH.....)

Chorus:
(Keep on whispering in my ear)
e----------x-------x-------x------x-------|
B----------x-------x-------x------x-------|
G----------x-------x-7-7-7-x------x-------|  x4
D--2-2-2-2-x-7-7-7-x-7-7-7-x7-7-7-x-------|
A--2-2-2-2-x-7-7-7-x-5-5-5-x7-7-7-x-------|
E----------x-5-5-5-x-------x5-5-5-x-------|
(Thats what i like about you)

2nd Verse
(What I like about you)
e----------x---------x---------x----------------------|
B----------x---------x---------x----------------------|
G--9-9-9-9-x---------x-7-7-7-7-x----------------------|  x4
D--9-9-9-9-x-7-7-7-7-x-7-7-7-7-x-7-7-7-7--------------|
A--7-7-7-7-x-7-7-7-7-x-5-5-5-5-x-7-7-7-7--------------|
E----------x-5-5-5-5-x---------x-5-5-5-5--------------|
(Talk about true romatic,YEAH...)

CHORUS
Keyboard solo, then bass solo...but keep playing along but softer
 Get louder at the end of the 3rd Verse
CHORUS...and so on.

                          Thats it ALOHAZ!