Lillix - What I Like About You Chords & Tabs

 

What I Like About You Chords & Tabs

Lillix Chords & Tabs

Version: 1 Type: Tab 0 ratings
1 star 2 stars 3 stars 4 stars 5 stars
comments

What I Like About You Tab

   
By:Christina blonde_lightning@hotmail.com
-----------------------------------------

Lillix
What I Like About You

----------------------------------------

This is song is very simple and fun to play. It's the same 3 easy chords all the
way through (except for the opening lick). Here are the 3 chords you'll need to
know:

E5 022xxx
A5 577xxx
D5 x577xx
D  x5775x

For beginners who may have trouble playing bar/power chords, you may want to play
them in the simpler positions.

Em 0220xx
A  X02200
D  xx0323


(opening lick)

e|-----------------------------------
b|-x-x-10-9-10-----------------------
g|-x-x-9--9--9--x-x-7-7-7-7s/6-6-6---
d|--------------x-x-7-7-7-7--7-7-7---
a|-----------------------------------
e|-----------------------------------

e|----------------------------------
b|-x-x-10-9-10----------------------
g|-x-x-9--9-9---x-x-7-x-6~ ---------
d|--------------x-x-7-x-7~ --------- HEY!!!
a|----------------------------------
e|----------------------------------  

e|-----------------------------------
b|-x-x-10-9-10-----------------------
g|-x-x-9--9-9---x-x-7-7-7-7s/6-6-6---
d|--------------x-x-7-7-7-7--7-7-7---
a|-----------------------------------
e|-----------------------------------

e|-----------------------------------
b|-x-x-10-9-10-----------------------
g|-x-x-9--9-9---x-x-7--6-6-6---------
d|--------------x-x-7--7-7-7--------- HEY!!!
a|-----------------------------------
e|-----------------------------------




------------------------------------------

Intro:

Hey!

Hey!

Start playing chords> E5, A5, D5

Uh-huh...
Hey!
Uh-huh... 


Verse 1:
(muted)

                  E5 - A5- D5-
What I like about you

     A5-    E5 - A5 -D5- A5
you hold me tight

E5              A5
tell me I'm the only one

D5         A5
wanna come over tonight

E5-A5-D~
yeah... 


Chorus:



E5       A5          D~
keep on whispering in my ear

E5         A5             D~
tell me all the things that I wanna hear
[ Tab from: http://www.guitartabs.cc/tabs/l/lillix/what_i_like_about_you_tab.html ]
         E5 - A5 - D~
cuz its true

                         E5 - A5 - D~
that's what I like about you..


Verse 2:
(muted)


                  E5 - A5 - D5-                    
What I like about you 

           A5           E5- A5- D5
you really know how to dance

  A5        E5        A5
when you go up down, jump around

D          A5
talk about true romance


E5- A5- D
yeah... 



Chorus:


E5       A5          D~
keep on whispering in my ear

E5         A5             D~
tell me all the things that I wanna hear

         E5 - A5 - D~
cuz its true

                         E5 - A5 - D~
that's what I like about you..

                         E5 - A5 - D~
that's what I like about you..

                         E5 - A5 - D~
that's what I like about you..


Keyboard Solo (keep playing chords)


Uh-huh...
Hey!
Hey!
Hey!
Hey!

Bass Solo:
(no guitar)

What I like about you
you keep me warm at night
never wanna let you go
no you make me feel alright
yeeeeah...



Chorus:



E5       A5          D~
keep on whispering in my ear

E5         A5             D~
tell me all the things that I wanna hear

         E5 - A5 - D~
cuz its true

                         E5 - A5 - D~
that's what I like about you..

                         E5 - A5 - D~
that's what I like about you..

                         E5 - A5 - D~
that's what I like about you.. you you...
                         E5 - A5 - D~
that's what I like about you..

                         E5 - A5 - D~
that's what I like about you..

                         E5 - A5 - D~
that's what I like about you..


(play opening lick)

Hey!
Uh-huh
Hey!
Hey!
Hey!
Hey!
Uh-huh...
Hey!
that's what I like about you...
Hey!
Comments