Lillix - Tomorrow Chords & Tabs

 

Tomorrow Chords & Tabs

Lillix Chords & Tabs

Version: 1 Type: Bass Tab 0 ratings
1 star 2 stars 3 stars 4 stars 5 stars
comments

Tomorrow Bass Tab

Intro:

G------------------------------------------------
D----------------10-9-7(7)-----------------------
A--8---8-11---11---------------------------------
E--------------------------/1---1-4--------------

Chorus:

G------------------------------------------------
D------------------------------------------------
A-333333332222222200000000-----------------3(3)*-   
E-------------------------11111111*11111111------
                     Play 2 times, *part* is only played on the last time

Verse:
[ Tab from: http://www.guitartabs.cc/tabs/l/lillix/tomorrow_btab.html ]
G------------------------------------------------
D------------------------------------------------
A-------------3-2-0------------------------------
E-1---1-4---4------------------------------------
                     Play 2 times, then end with:
G------------------------------------------------
D------------------------------------------------
A------------------------------------------------
E-1---124----------------------------------------


Bridge:

G--------------------------------------------------------------------------
D--------------------/(10)(10)(10)(10)---/(10)(10)(10)(10)-----------------
A-3333333311111111333-----------------333-----------------1111111111111111-
E--------------------------------------------------------------------------
                          Parenthases (10) is ten.....(3) is let ring
                  

Play immediately after bridge:

G------------------------------------------------
D-10---(10)9---97--------------------------------
A------------------------------------------------
E----------------/1111111111111111---------------




Questions or comments to manof3200@msn.com
Comments