Lila Mccann - When You Walked Into My Life Melodic Chords & Tabs

 

When You Walked Into My Life Melodic Chords & Tabs

Lila Mccann Chords & Tabs

Version: 1 Type: Tab 0 ratings
1 star 2 stars 3 stars 4 stars 5 stars
comments

When You Walked Into My Life Melodic Tab

Artist: Lila McCann
CD: Something In The Air
Song: When You Walked Into My Life
Tabbed By: Marylin Alderman

As usual, no guitar in front of me so please excuse any mistakes. I didn't
try to put this to any kind of time, just to the lyrics, so you might want to
listen to the CD.

***VERSE 1***

E-------O------------------I-----------O-------------------|I
B----------3---3---1----1--I--------------3---3---1--------|I
G--O-----------------------I--O---O--------------------2---|I
D--------------------------I-------------------------------|I
A--------------------------I-------------------------------|I
E--------------------------I-------------------------------|I
  I've waited all this time  Counting minutes as they pass

E---O--------3---------O----I--O-------------------|I
B-------3-------1--1-3---3--I-----3---3---1----1---|I
G---------------------------I----------------------|I
D---------------------------I----------------------|I
A---------------------------I----------------------|I
E---------------------------I----------------------|I
  Searching for a  s i g n    Wishing for the best

E---------------3---3-----O------------O--I------------3---3----O-O----O------|I
B--1---1----1------------------3--1-------I--1----1-----------------1-----3---|I
G-----------------------------------------I-----------------------------------|I
D-----------------------------------------I-----------------------------------|I
A-----------------------------------------I-----------------------------------|I
E-----------------------------------------I-----------------------------------|I
  And just when my hopes were wearing thin  You turned my heart to love again

***END OF VERSE 1***


***CHORUS 1:***

E-----------7--8-3--1----1---1-O---O---3--I-3---7---8----5-3--|I
B--1---1----------------------------------I-------------------|I
G-----------------------------------------I-------------------|I
D-----------------------------------------I-------------------|I
A-----------------------------------------I-------------------|I
E-----------------------------------------I-------------------|I
  Like a  m i r a c l e  out  of  the blue  You rescued  m e


E--1----1---O-O------I-------7---8----8--7---3-----5-----O---O-----|I
B-----------------3--I--1--------------------------------------3---|I
G--------------------I---------------------------------------------|I
D--------------------I---------------------------------------------|I
A--------------------I---------------------------------------------|I
E--------------------I---------------------------------------------|I
  Like the angels do   You shook the heavens and cracked the sky

E-------O---------I--5----------------3----O------------------|I
B---1-----3---1---I-------5---5--3-----------3-3---5-3--3-1---|I
G-----------------I-------------------------------------------|I
D-----------------I-------------------------------------------|I
A-----------------I-------------------------------------------|I
E-----------------I-------------------------------------------|I
  When  you walked  When you walked  i n  t  o     my  life

***CHORUS 1 ENDS HERE***

***VERSE 2***

E--O----------------I------------------------I------------3---------O-----|I
B------3-1---1---1--I--------5---3--1--------I------5--3-----1--1-3---3---|I
G-------------------I--O-----------------2---I--O-------------------------|I
D-------------------I------------------------I----------------------------|I
A-------------------I------------------------I----------------------------|I
E-------------------I------------------------I----------------------------|I
  When you  appeared  Like sight to the blind  Like music to my  e a r s

E---------O---------------I---------------3----3----O---------------O---|I
B------------3--3--1---1--I--1---1----1------------------3----1---------|I
G--O---O------------------I---------------------------------------------|I
D-------------------------I---------------------------------------------|I
A-------------------------I---------------------------------------------|I
E-------------------------I---------------------------------------------|I
  Like a reason to a rhyme  And just when I thought my chance was gone

E------------5-----3-------------------------|I
B--1----1------5-----5---5----5-1--5---5-3---|I
G--------------------------------------------|I
D--------------------------------------------|I
A--------------------------------------------|I
E--------------------------------------------|I
  Love came  t o   m e  with  o p e n  arms


***CHORUS 1:***
[ Tab from: http://www.guitartabs.cc/tabs/l/lila_mccann/when_you_walked_into_my_life_melodic_tab.html ]
E-----------7--8-3--1----1---1-O---O---3--I-3---7---8----5-3--|I
B--1---1----------------------------------I-------------------|I
G-----------------------------------------I-------------------|I
D-----------------------------------------I-------------------|I
A-----------------------------------------I-------------------|I
E-----------------------------------------I-------------------|I
  Like a  m i r a c l e  out  of  the blue  You rescued  m e


E--1----1---O-O------I-------7---8----8--7---3-----5-----O---O-----|I
B-----------------3--I--1--------------------------------------3---|I
G--------------------I---------------------------------------------|I
D--------------------I---------------------------------------------|I
A--------------------I---------------------------------------------|I
E--------------------I---------------------------------------------|I
  Like the angels do   You shook the heavens and cracked the sky

E-------O---------I--5----------------3----O------------------|I
B---1-----3---1---I-------5---5--3-----------3-3---5-3--3-1---|I
G-----------------I-------------------------------------------|I
D-----------------I-------------------------------------------|I
A-----------------I-------------------------------------------|I
E-----------------I-------------------------------------------|I
  When  you walked  When you walked  i n  t  o     my  life

***CHORUS 1 ENDS HERE***


***BRIDGE***

E--3----3---3---3----2---O--O--------7----3---3---5---|I
B------------------------------3--3-------------------|I
G-----------------------------------------------------|I
D-----------------------------------------------------|I
A-----------------------------------------------------|I
E-----------------------------------------------------|I
  You spoke my name and the world began   a g a i n

E--3-----3----3---3----2-------O-O---|I
B--------------------------3---------|I
G------------------------------------|I
D------------------------------------|I
A------------------------------------|I
E------------------------------------|I
  You touched my heart and it opened

***OKAY, THERE IS A CHANGE IN THE CHORUS. WE'LL CALL IT CHORUS 2***


***CHORUS 2***

E-----------7--8-3--1----1---1-O---O---3--I-3---7---8----5-3--|I
B--1---1----------------------------------I-------------------|I
G-----------------------------------------I-------------------|I
D-----------------------------------------I-------------------|I
A-----------------------------------------I-------------------|I
E-----------------------------------------I-------------------|I
  Like a  m i r a c l e  out  of  the blue  You rescued  m e


E--1----1---1-3----O----I-------7---8----8--7---3-----5-----O---O-----|I
B--------------------3--I--1--------------------------------------3---|I
G-----------------------I---------------------------------------------|I
D-----------------------I---------------------------------------------|I
A-----------------------I---------------------------------------------|I
E-----------------------I---------------------------------------------|I
  Like the angels  d o   You shook the heavens and cracked the sky

E-------O---------I--5----------------3----O------------------|I
B---1-----3---1---I-------5---5--3-----------3-3---5-3--3-1---|I
G-----------------I-------------------------------------------|I
D-----------------I-------------------------------------------|I
A-----------------I-------------------------------------------|I
E-----------------I-------------------------------------------|I
  When  you walked  When you walked  i n  t  o     my  life

***CHORUS 2 ENDS HERE***

***CHORUS 1, SLOW DOWN AT THE END***

***CHORUS 1:***

E-----------7--8-3--1----1---1-O---O---3--I-3---7---8----5-3--|I
B--1---1----------------------------------I-------------------|I
G-----------------------------------------I-------------------|I
D-----------------------------------------I-------------------|I
A-----------------------------------------I-------------------|I
E-----------------------------------------I-------------------|I
  Like a  m i r a c l e  out  of  the blue  You rescued  m e


E--1----1---O-O------I-------7---8----8--7---3-----5-----O---O-----|I
B-----------------3--I--1--------------------------------------3---|I
G--------------------I---------------------------------------------|I
D--------------------I---------------------------------------------|I
A--------------------I---------------------------------------------|I
E--------------------I---------------------------------------------|I
  Like the angels do   You shook the heavens and cracked the sky

E-------O---------I--5----------------3----O------------------|II
B---1-----3---1---I-------5---5--3-----------3-3---5-3--3-1---|II
G-----------------I-------------------------------------------|II
D-----------------I-------------------------------------------|II
A-----------------I-------------------------------------------|II
E-----------------I-------------------------------------------|II
  When  you walked  When you walked  i n  t  o     my  life

***CHORUS 1 ENDS HERE***

***END OF SONG***


Don't forget, this was meant as a melodic solo for a single guitar. Add your
own details if you would like it to be more exciting. E-mail me with any
suggestions: 
Thanks!
--Marylin--
Comments