Lightman Toby - Devils And Angels Chords & Tabs

 

Devils And Angels Chords & Tabs

Lightman Toby Chords & Tabs

Version: 1 Type: Tab 0 ratings
1 star 2 stars 3 stars 4 stars 5 stars
comments

Devils And Angels Tab

Toby Lightman
"Devils and Angels"
from the album "Little Things"
tabbed by Jason Shank (jms483@hotmail.com)

Standard tuning

I've seen a handful of tabs for this song, but none of them sounded close to right.  So, I decided to have a go at it.  I'm not 100% positive about the chords in the chorus, but they sound right and seem to work.  If anyone can fix whatever errors may be present, I'd greatly appreciate it.  I'll assume you can figure out the strumming patterns and positions of chord changes on your own, because we're all smart folks here.  Thanks, and enjoy!


Intro and Verse:

"I found out today..."

e----5-----3-----1-----0----3--1--0--0-------]
B----6-----5-----3-----2----2--2--2--0-------]
G----7-----6-----2-----2----2--2--2----------]     
D----0-----0-----0-----0----0--0--0----------]
A---(0)---(0)---(0)---(0)--------------------]
E--------------------------------------------]


Pre-chorus:

"And I'm gonna meet you..."
[ Tab from: http://www.guitartabs.cc/tabs/l/lightman_toby/devils_and_angels_tab.html ]
e----3----5----1----1----5--3--1--0----------]
B----3----5----3----3----6--5--3--2----------]
G----3----6----2----3----7--6--2--2----------]
D----5----5----0----0----0--0--0--0----------]
A----5----7----0----0------------------------]
E----3----5----------------------------------]

Chorus:

"Cause I used to have angels..."

e----3----3----0----3----3----3--------------]
B----3----3----3----3----3----3--------------]
G----0----0----2----0----0----0--------------]
D----2----0----0----2----2----0--------------]
A----3----2----0----2----3----2--------------]
E--------(0)--------0----0----0--------------]

"So I can't love you no more..."

e----5----3----1----0----3----5--------------]
B----6----5----3----2----3----5--------------]
G----7----6----2----2----3----6--------------]
D----0----0----0----0----5----5--------------]
A------------------------5----7--------------]
E------------------------3----5--------------]


Intro/Verse
Pre-chorus
Chorus
Bridge (same as Intro/Verse)
Chorus
Outro (same as Intro/Verse)
Comments