Lifehouse - You And Me Chords & Tabs

 

You And Me Chords & Tabs

Lifehouse Chords & Tabs

Version: 3 Type: Bass Tab

You And Me Bass Tab

You and Me - Lifehouse

Tabbed By: Drew Fish
E-mail: microfish89@yahoo.com

Tuning: Standard

Verse 2 (in at 0:59)
G|----------------------------------------------|
D|------------------------------------10-12-----|
A|----3---2---5-3---3---2-/-7-5-3---10----------|
E|--3---2---0-----3---2------------8--------8\--|

Chorus
G|------------------------------------|
D|------------------------------------|
A|----0-3--------5----0-3--------5----|
E|--3------0-3-0----3------0-3-0---3--|
[ Tab from: http://www.guitartabs.cc/tabs/l/lifehouse/you_and_me_btab_ver_3.html ]
Bridge
G|---------------------------------------------------------------|
D|--5-4-0----------------------------2------5/9--10--12--13--15--|
A|--------2----2-3--------5--------2---0--5----------------------|
E|-----------2------0-2-3----0-2-3-------------------------------|

(Chorus)-see Note below

Outro
G|---------------------------|
D|---------------------------|
A|----3---2---5-3------------|
E|--3---2---0------3-(fade)--|

Note: When repeating the Chorus following the Bridge, leave the last note out in the Chorus.

Order
Verse 2
Chorus
Bridge
Chorus
Outro

*Bass comes in at 0:59

Bass does not play from 2:08 to 2:29 (During the first repeat of the Chorus following the Bridge).