Lifehouse - You And Me Chords & Tabs

 

You And Me Chords & Tabs

Lifehouse Chords & Tabs

Version: 2 Type: Bass Tab 0 ratings
1 star 2 stars 3 stars 4 stars 5 stars
comments

You And Me Bass Tab

The bass part doesn't actually come into the song until the second verse, so that's 
I started.  You can play it with the first verse as well.

Verse 2:

E-------------------------|
A-------------------------|
D---5------4--5--2--02--|
G------5------------------|


E---------------------------------------|
A-------------------10---10----10----17-|
D---5-----45202--14----14----14----|
G------5--------------------------------|

Chorus:
[ Tab from: http://www.guitartabs.cc/tabs/l/lifehouse/you_and_me_btab_ver_2.html ]
E-------------------------------------------------------------|
A----------------7---5---7---5----------------7---5---7---3---|
D---5---7---10-------------------5---7---10-------------------|
G-------------------------------------------------------------|

Bridge:

E----------------------------------------------------------------------------|
A----------------------------------------------------------------------------|
D---4---0-4--5--1210972---4---5--9---5---9---7---0---9---10---12---13---|
G----------------------------------------------------------------------------|


this is extremely acurate. just listen to the cd and play along.  i play acoustic as 
and it sounds awesome with these bass tabs. i'm still working on alternate fingerings
for bridge but this still works. have fun! if you have any questions feel free to email
rachael at wilson4him@juno.com
Comments