Lifehouse - Wash Chords & Tabs

 

Wash Chords & Tabs

Lifehouse Chords & Tabs

Version: 1 Type: Tab 0 ratings
1 star 2 stars 3 stars 4 stars 5 stars
comments

Wash Tab

   
Artist: LIFEHOUSE
Song: Wash
Album: Stanley Climbfall

Drop-D Tuning

Vers

e---------------------------------------------------
B---------------------------------------------------
G--9/11--11-11-11---9/11--11-11--9/11-11-11---------
D---------------------------------------------------
A--7/9---9--9--9----7/9---9--9---7/9---9--9---------
D--0-0---0--0--0----0-0---0--0---0-0---0--0---------

[ Tab from: http://www.guitartabs.cc/tabs/l/lifehouse/wash_tab.html ]
e---------------------------------------------------
B---------------------------------------------------
G--11/13--13-13-13---11/13--13-13--13/16-16-16------
D---------------------------------------------------
A--9/11---11-11-11---9/11---11-11--11/14-14-14------
D--0-0----0--0--0----0--0---0--0---0--0--0--0-------


e----------------------------------------------
B----------------------------------------------
G--9/11--11-11-11---9/11--11-11--9/11----------
D----------------------------------------------
A--7/9---9--9--9----7/9---9--9---7/9-----------
D--0-0---0--0--0----0-0---0--0---0-0-----------

e-------------------
B-------------------
G--11-9-7-6--4/6---- End Vers
D-------------------
A--9--7-5-4--2/4----
D--0--0-0-0--0-0----


Chours
   
    Em   G   Dsus
e---0----0----0----
B---0----3----3----
G---0----0----2----
D---2----0----0----
A---2----5----0----
D---2----5----0----
"You Wash over me..."


//Fredrik Forell

fredrik_forell@hotmail.com
Comments