Lifehouse - Take Me Away Chords & Tabs

 

Take Me Away Chords & Tabs

Lifehouse Chords & Tabs

Version: 2 Type: Tab 0 ratings
1 star 2 stars 3 stars 4 stars 5 stars
comments

Take Me Away Tab

   
Band: Lifehouse
Song: Take Me Away
Album: Stanley Climbfall
Tabbed by: Berk Ozdemir
e-mail:to_tame_a_land@hotmail.com

***********************************************************
The song is played in standart tuning but in concerts 
sometimes Jason tunes it 1/2 down. 
This is the album version
***********************************************************
INTRO

Guitar1(clean)

Very softly(I think Jason plays with his fingers)
e|--------------------------------------------------------|
B|----10--------------------------------------------------|
G|-7-----7---9---7---x16--(untill the distorted part)-----|
D|--------------------------------------------------------|
A|--------------------------------------------------------|
E|--------------------------------------------------------|

Guitar2(distorted)
e|--------------------------------------------------------|
B|--------------------12/15-14----------------------------|
G|-7~--9-9/11~---14~-----------11~hold--11/12/11-7hold--6-|
D|--------------------------------------------------------|
A|--------------------------------------------------------|
E|--------------------------------------------------------|

Both guitars wait for drum's little attack then,

Guitar1(this time distorted)

e|-------------------------------------------------------|
B|----10-------------------------------------------------|
G|-7-----7--9--7--X16(untill-the-verse)------------------|
D|-------------------------------------------------------|
A|-------------------------------------------------------|
E|-------------------------------------------------------|

Guitar2
    D5           G5             B5          G5
e|-------------------------------------------------------|
B|-------------------------------------------------------|
G|--7-7-7-7--------------------4-4-4-4-------------------|
D|--7-7-7-7-X2---5-5-5-5-------4-4-4-4-X2--5-5-5-5-------|
A|--5-5-5-5------5-5-5-5-X2----2-2-2-2-----5-5-5-5-X2----|
E|---------------3-3-3-3-------------------3-3-3-3-------|

Verse
*********************************************
Here Guitar1 is doing some simple things, but if you
are going to play this song live, i recommend you to
play random arpegios according to chords.
And also it's not necsesary to play Guitar2 because
it's sound is really weak
**********************************************
Guitar1 (clean) X2
          D           Gsus              Bm
e|-------------------------------------------------------
B|--------3-----------3-3--------------3-3--2--2---2-----
G|--------2-----0-2---2-2-----0-2------2-2--2----2----2--
D|--------0----4------0-0---4----------------------------
A|-------------------------------------------------------
E|-------------------------------------------------------
This time           All i want is you

Guitar1
       Gsus                     D
e|-------------------------------------------------|
B|----3-3--------------------------3--3------------|
G|----2-2----0-2-------------------2----2----------|
D|----4-4--4---------------------------------------|
A|-------------------------------------------------|
E|-------------------------------------------------| 
        There's no one else      Who can take your place

Guitar2
Just vibrato on d note. Just one or two times do this
e|--------|             |----------------------------|
B|--------|             |----------------------------|
G|---7~---|             |--------11~-12~------7~-----|
D|--------|             |----------------------------|
A|--------|             |----------------------------|
E|--------|             |----------------------------|

BRIDGE
Guitar1
e|----------------------------------------------------|
B|----------------------------------------------------|
G|----------------------------------------------------|
D|---7------------------9-----------------/17-17-17---|
A|---7------------------9-----------------/17-17-17...|
E|---5------------------7-----------------/15-15-15---|
I've seen it.. It keeps leaving me needing you


Chorus
Guitar1
         D5    A5         B5             E5        G5
e|------------------------------------------------------|
B|------------------------------------------------------|
G|-------7----------------4-----------------------------|
D|-------7-----7----------4------------------------5-5--|
A|-------5-----7----------2--------------2-2-------5-5--|
E|-------------5---------------------0-0-0-0---0-0-3-3--| 
Take me away       Take me away         I've got nothing..


Guitar2
e|--------------------------------------------------
B|--------------------------------------------------
G|---------/11-11-11-11/9-9-9-9----------------4----
D|----------x--x--x--x--x-x-x-x----------------x----
A|---------/9--9--9--9-/7-7-7-7----------------2----
E|-------------------------------------------------- 
Take me a-           way          Take me away

Guitar 2
e|--------------------------------------------------
B|--------------------------------------------------
G|--11-11-11-11-11-11--12-12-12-12-12-12---14-14-14-
D|--x--x--x--x--x--x----x--x--x--x--x--x----x--x--x-
A|--9--9--9--9--9--9---10-10-10-10-10-10---12-12-12-
E|-------------------------------------------------- 
I've      got           nothing else to say

Guitar2                         (pm on E|-0-| notes)
e|-------------------------------------------------|
B|-------------------------------------------------|
G|----16--16/18/16--/19/18/11----------------------|
D|-----x---x--x--x----x--x--x----------------------|
A|----14--14/16/14--/17/16/-9--------2-2------5-5--|
E|-------------------------------0-0-0-0--0-0-3-3-- |
Just    take     me     away     


VERSE2
Both guitars are the same but play both only once

BRIDGE

CHORUS
[ Tab from: http://www.guitartabs.cc/tabs/l/lifehouse/take_me_away_tab_ver_2.html ]
RIFF BEFORE SOLO
Guitar1
     F#5             G5
e|------------------------------------------------
B|------------------------------------------------
G|------------------------------------------------
D|-------4---------------5---7----9---------------
A|---4-4---4--X2-----5-5--------------------------
E|---2-2---2---------3-3-----5----7---------------
        Don't give up        on me   yet       

Guitar1
      F#              E5             G5
e|-------------------------------------------------
B|-------------------------------------------------
G|-------------------------------------------------
D|--------4----------------------------------------
A|---/4-4---4--X2-----2-2-2-2--------5--5----------
E|---/2-2---2---------0-0-0-0--0-0---3--3----------
   Don't forget who  I am      
Guitar1
     F#              G5
e|-------------------------------------------------
B|-------------------------------------------------
G|-------------------------------------------------
D|-------4---------------5---7----9----------------
A|---4-4---4--X2-----5-5---------------------------
E|---2-2---2---------3-3-----5----7----------------
          I know I'm not there yet
Guitar1
     F#                A5
e|-------------------------------------------------|
B|-------------------------------------------------|
G|-------------------------------------------------|
D|---------4-----------7-7-7-7---------------------|
A|---4--4----4--X2-----7-7-7-7-X2------------------|
E|---2--2----2---------5-5-5-5---------------------|
But don't let me stay here alone

Guitar2
e|---------------------------------------------------------------
B|--7-7-7-7------8-8-8-8-8-----/14-14-14-14------12-12-12-12-----
G|--6-6-6-6-X2---7-7-7-7-7-X2--/13-13-13-13-X2---11-11-11-11-X2--
D|---------------------------------------------------------------
A|---------------------------------------------------------------
E|---------------------------------------------------------------
Don't give up on me yet        Don't forget who I am   

Guitar2
e|---------------------------------------------------------------|
B|--7-7-7-7------8-8-8-8-8-----/14-14-14-14------17-17-17-17-----|
G|--6-6-6-6-X2---7-7-7-7-7-X2--/13-13-13-13-X2---16-16-16-16-X2--|
D|---------------------------------------------------------------|
A|---------------------------------------------------------------|
E|---------------------------------------------------------------|

 I know I'm not there yet     But don't let me stay here alone

SOLO

Guitar1
Play the CHORUS

Guitar2
e|-----------------------------------------------------
B|-----------------------------------------------------
G|--7-----6-/11----/9---7/9--------9-9/11/9/12/11------
D|---------------------------7/9-----------------------
A|-----------------------------------------------------
E|-----------------------------------------------------

e|-----------------------------------------------------|
B|----------12-12/14-12---14/15--14--------------------|
G|--14-------------------------------/11~-----/5-------|
D|-----------------------------------------------------|
A|-----------------------------------------------------|
E|-----------------------------------------------------|

VERSE
Guitar1 (clean)
          D           Gsus              Bm
e|-------------------------------------------------------
B|--------3-----------3-3--------------3-3--2--2---2-----
G|--------2-----0-2---2-2-----0-2------2-2--2----2----2--
D|--------0----4------0-0---4----------------------------
A|-------------------------------------------------------
E|-------------------------------------------------------
This time           All i want is you

Guitar1

e|-------------------------------------------------|
B|----3-3--------------------------3--3------------|
G|----2-2----0-2-------------------2----2----------|
D|----4-4--4---------------------------------------|
A|-------------------------------------------------|
E|-------------------------------------------------|
        There's no one else      Who can take your place

Guitar2
Very softly
e|-------------------------------------------------------|
B|----10-------------------------------------------------|
G|-7-----7---9---7---------------------------------------|
D|-------------------------------------------------------|
A|-------------------------------------------------------|
E|-------------------------------------------------------|

BRIDGE2

Guitar1(play A5 clean then B5 distorted)     
 
     A5                      B5
e|--------------------------------------
B|---------------------------------------
G|--------------------------------------
D|---7---7-7-7-7-----------9-9-9-9-------
A|---7---7-7-7-7-X8--------9-9-9-9-X8----
E|---5---5-5-5-5-----------7-7-7-7-----
        I've seen enough.. It keeps leaving me..

CHORUS
(Finish the song with D5)


***********************************************************
Wow at last.. that's it guys. I hope you'll enjoy.
Any questions? See my e-mail at the top.

Chords

    D      Gsus     Bm
e|--2-------3--------2------|
B|--3-------3--------3------|
G|--2-------0--------4------|
D|--0-------0--------4------|
A|----------0--------2------|
E|----------3---------------|

Lyrics

This time all I want is you
There is no one else who 
Can take your place
This time you burned me with your eyes
You see past all the lies
You take it all away 
Iíve seen it all and itís never enough
It keeps leaving me needing you

Take me away
Take me away
Iíve got nothing left to say
Just take me away

I try to make my way to you
But still I feel so lost 
I donít know what else
I can do

Iíve seen it all and itís never enough
It keeps leaving me needing you

Take me away
Take me away
Iíve got nothing left to say
Just take me away

Donít give up on me yet
Donít forget who I am
I know Iím not there yet
But donít let me stay here alone

This time all I want is you
There is no one else who 
Can take your place
This time you burned me with your eyes
You see past all the lies
You take it all away

Iíve seen it all and itís never enough
It keeps leaving me needing you

Take me away
Take me away
Iíve got nothing left to say
Just take me away
Comments