Lifehouse - Storm Chords & Tabs

 

Storm Chords & Tabs

Lifehouse Chords & Tabs

Version: 2 Type: Tab 0 ratings
1 star 2 stars 3 stars 4 stars 5 stars
comments

Storm Tab

   
riff 1

  Em7             C              G
|---------------------------------------------------------------|
|--------3--------------3--------------3--------------3---------|
|------0---0---0------0---0---0------0---0---0------0---0---0---|
|----2-------2------2-------2------0-------0------0-------0-----|
|-----------------3---------------------------------------------|
|--0-----------------------------3--------------3---------------|
                                                                2x for intro
  Em7             D/F#          G
---------------------------------------------------------------|
--------3--------------3--------------3-------------3----------|
------0---0---0------2---2---0------0---0---0-----0---0---0----|
----2-------2------0-------0------0-------0-----0-------0------|
---------------------------------------------------------------|
--0--------------2-------------3--------------3----------------|

riff 2
   G        D/F#    Em7            C           G
|---------------------------------------------------------------|
|--------3-------3-------3-------------3-------------3----------|
|------0-------2-------0---0---0-----0---0---0-----0---0---0----|
|----0-------0-------2-------2-----2-------2-----0-------0------|
|--------------------------------3------------------------------|
|--3-------2-------0---------------------------3----------------|

  G       D/F#    Em7           C            G
----------------------------------------------------------------|
--------3-------3-------3-------------3-------------3-----------|
------0-------2-------0---0---0-----0---0---0-----0---0---0-----|
----0-------0-------2-------2-----2-------2-----0-------0-------|
--------------------------------3-------------------------------|
--3-------2-------0---------------------------3-----------------|

----------------|
-------3--------|
-----0---0---0--|
---0-------0----|
----------------|
-3--------------|


CHORUS

 Em7             C              G
|---------------------------------------------------------------|
|--------3--------------3--------------3--------------3---------|
|------0---0---0------0---0---0------0---0---0------0---0---0---|
|----2-------2------2-------2------0-------0------0-------0-----|
|-----------------3---------------------------------------------|
|--0-----------------------------3--------------3---------------|
[ Tab from: http://www.guitartabs.cc/tabs/l/lifehouse/storm_tab_ver_2.html ]
  Em7             D/F#          G
---------------------------------------------------------------|
--------3--------------3--------------3-------------3----------|
------0---0---0------2---2---0------0---0---0-----0---0---0----|
----2-------2------0-------0------0-------0-----0-------0------|
---------------------------------------------------------------|
--0--------------2-------------3--------------3----------------|

 Em7             C              G        D/F#    Em7
|--------------------------------------------------------------|
|--------3--------------3--------------3-------3-------3-------|
|------0---0---0------0---0---0------0-------2-------0---0---0-|
|----2-------2------2-------2------0-------0-------2-------2---|
|-----------------3--------------------------------------------|
|--0-----------------------------3-------2-------0-------------|
 C             D             G                      D/F#
---------------------0-----------------------------------------|
-------3-----------3---3---3-------3-------------3-------3-----|
-----0---0---0---2-------2-------0---0---0-----0-------2-------|
---2-------2---0---------------0-------0-----0-------0---------|
-3-------------------------------------------------------------|
-----------------------------3-------------3-------2-----------|
  Em7           D             Em7
----------------------0----------------------|
--------3-----------3---3---3-------3--------|
------0---0---0---2-------2-------0---0---0--|
----2-------2---0---------------2-------2----|
---------------------------------------------|
--0---------------------------0--------------|

he plays this after the chorus

   G
|------------------------------|
|----------3-------------------|
|------0-2---2-0/2--2-0--------|
|----0------------------0------|
|------------------------------|
|--3---------------------------|


LYRICS

[riff1]
How long have I, been in this storm.
So overwhelmed by the ocean's shapeless form.
Water's getting harder to tread,
with these waves crashing over my head.

[riff2]
If I could just see you,
everything will be alright.
If I'd see you,
the storminess will turn to light.

[chorus]
And I will walk on water,
and you will catch me if I fall
And I will get lost into your eyes,
and everything will be alright.
And everything will be alright.

[riff1]
I know you didn't bring me out here to drown,
so why am I 10 feet under and upside down.
Barely surviving has become my purpose,
cause I'm so used to living underneath the surface.

[riff2]
If I could just see you,
everything will be alright.
If I see you,
the storminess will turn to light.

[chorus]
And I will walk on water,
and you will catch me if I fall
And I will get lost into your eyes,
and everything will be alright.

[chorus]
And I will walk on water,
you will catch me if I fall.
and I will get lost into your eyes,
and everything will be alright.
I know everything is alright.
Comments