Lifehouse - Storm Chords & Tabs

 

Storm Chords & Tabs

Lifehouse Chords & Tabs

Version: 1 Type: Tab 0 ratings
1 star 2 stars 3 stars 4 stars 5 stars
comments

Storm Tab

   
#----------------------------------PLEASE NOTE---------------------------------#
#This file is the author's own work and represents their interpretation of the #
#song. You may only use this file for private study, scholarship, or research. #
#------------------------------------------------------------------------------#
#------------Created with Taborama Tab Creator-----www.taborama.com------------#
#------------------------------------------------------------------------------#

Title: Storm
Artist: Lifehouse(Blyss)
Album: Diff's Lucky Day

Instrument: Guitar

Tabbed by: KREVZI (unspoken.truth1@gmail.com)

Tuning: Standard (E A D G B E)

This song is from when Lifehouse was better known as Bliss. However...It's a really cool song and its really easy to play.  The following diagrams show the way you should hold your fingers when picking.  It alot easier to play when you arrange them like this. Have fun!!

C#M      G
0            0
3            3
0            0
2            0
3            2 
0            0




Intro
    C#M                          G
E|----------------------------------------------------------||
B|-------3-------------3-------------3-------------3--------||
G|-----0---0---0-----0---0---0-----0---0---0-----0---0---0--||
D|---2-------2-----2-------2-----0-------0-----0-------0----||
A|---------------3------------------------------------------||
E|-0---------------------------3-------------3--------------||



    C#M                          G
E|----------------------------------------------------------||
B|-------3-------------3-------------3-------------3--------||
G|-----0---0---0-----0---0---0-----0---0---0-----0----------||
D|---2-------2-----2-------2-----0-------0-----0------------||
A|---------------3------------------------------------------||
E|-0---------------------------3-------------3--------------||
[ Tab from: http://www.guitartabs.cc/tabs/l/lifehouse/storm_tab.html ]
VERSE

    C#M                          G
E|----------------------------------------------------------||
B|-------3-------------3-------------3-------------3--------||
G|-----0---0---0-----0---0---0-----0---0---0-----0---0---0--||
D|---2-------2-----2-------2-----0-------0-----0-------0----||
A|---------------3------------------------------------------||
E|-0---------------------------3-------------3--------------||

Play this 4 times then do this at the end of the fourth time


     G
E|----------------||
B|----------------||
G|-----0-----0----||
D|---0-----0------||
A|----------------||
E|-3-----2--------||

Chorus: Same as the verse

Interlude following the first Chorus(Not 100% about this but...it sounds right)

E|-----------3-----------------3--------------------------3-----------||
B|-------3------------------3-----0-------3---3-----------------------||
G|-----0-------0---0------0-------------0---0---0-----0-----0---------||
D|---2-----------2------2-------------0-------------0-----------------||
A|--------------------3-----------------------------------------------||
E|-0--------------------------------3-------------3-------------------||

E|-----------3-----------------3--------------------------3-----------||
B|-------3------------------3-----0-------3---3-----------------------||
G|-----0-------0---0------0-------------0---0---0-----0-----0---------||
D|---2-----------2------2-------------0-------------0-----------------||
A|--------------------3-----------------------------------------------||
E|-0--------------------------------3-------------3-------------------||

At the end of the last Chorus play this to end the song:

E|---3-------------0---||
B|-3---3---------0-----||
G|-------0-----0-------||
D|---------------------||
A|----------3----------||
E|---------------------||

Listen to the song to get a feel for the timing and for how many times the chorus...other than that...this tab is pretty good....
Comments