Lifehouse - Spin Chords & Tabs

 

Spin Chords & Tabs

Lifehouse Chords & Tabs

Version: 2 Type: Tab 1 rating
1 star 2 stars 3 stars 4 stars 5 stars
comments

Spin Tab

##################################################################################
# This file is the author's own work and represents their interpretation of the  #
# song. You may only use this file for private study, scholarship, or research.  #
##################################################################################

Artist : Lifehouse
Song   : Spin
Album  : Stanely Climbfall
Tabbed by - AguitarZplayiN (AguitarZplayiN@hotmail.com)

as always listen to the cd for rhythm
this is a simple yet great song, perfect for that special someone =P

Intro x1
     1   &  2  &  3  &  4  &     1  &  2  &  3  &  4  &
eb|---------------------------|-------------------------|
Bb|---------------------------|-------------------------|
Gb|---------------------------|-------------------------|
Db|---------------------------|-------------------------|
Ab|---9---9--9--9--9--9--9--9-|--9--9--9-11-11-11--9--9-|
Eb|-2/10-10-10-10-10-10-10-10-|-10-10-10-10-10-10-10-10-|

  1  &  2  &  3  &  4  &   1  &  2  &  3  &  4  &
|------------------------|------------------------|
|------------------------|------------------------|
|------------------------|------------------------|
|------------------------|----------5--5--5--4--4-|
|-5--5--5--5--5--5--5--5-|-7--7--7--7--7--7--7--7-|
|-7--7--7--7--7--7--7--7-|-7--7--7--7--7--7--7--7-|

  1  &  2  &  3  &  4  &   1  &  2  &  3  &  4  &
|------------------------|------------------------|
|------------------------|------------------------|
|------------------------|------------------------|
|------------------------|------------------------|
|-2--2--2--2--2--2--2--2-|-2--2--2--2--2--2--2--2-|
|-0--0--0--0--0--0--0--0-|-0--0--0--0--0--0--0--0-|


Verse x1

|------------------------|------------------------|
|------------------------|------------------------|
|------------------------|------------------------|
|------------------------|------------------------|
|--9--9--9--9--9--9--9--9|--9--9--9--9--9--9--9--9|
|-10-10-10-10-10-10-10-10|-10-10-10-10-10-10-10-10|

 
|------------------------|------------------------|
|------------------------|------------------------|
|------------------------|------------------------|
|------------------------|----------5--5--5--4--4-|
|-5--5--5--5--5--5--5--5-|-7--7--7--7--7--7--7--7-|
|-7--7--7--7--7--7--7--7-|-7--7--7--7--7--7--7--7-|

 
|------------------------|------------------------|
|------------------------|------------------------|
|------------------------|------------------------|
|------------------------|------------------------|
|-2--2--2--2--2--2--2--2-|-2--2--2--2--2--2--2--2-|
|-0--0--0--0--0--0--0--0-|-0--0--0--0--0--0--0--0-|

 
|------------------------|------------------------|
|------------------------|------------------------|
|------------------------|------------------------|
|------------------------|------------------------|
|--9--9--9--9--9--9--9--9|--9--9--9--9--9--9--9--9|
|-10-10-10-10-10-10-10-10|-10-10-10-10-10-10-10-10|

 
|------------------------|------------------------|
|------------------------|------------------------|
|------------------------|------------------------|
|------------------------|------------------------|
|-5--5--5--5--5--5--5--5-|-5--5--5--5--5--5--5--5-|
|-7--7--7--7--7--7--7--7-|-7--7--7--7--7--7--7--7-|


|------------------------|------------------------|
|------------------------|------------------------|
|------------------------|------------------------|
|-2--2--2--2--2--2--2--2-|-4--4--4--4--4--4--4--4-|
|-2--2--2--2--2--2--2--2-|-4--4--4--4--4--4--4--4-|
|-0--0--0--0--0--0--0--0-|-2--2--2--2--2--2--2--2-|

  
|------------------------|------------------------|
|------------------------|------------------------|
|------------------------|------------------------|
|-5--5--5--5--5--5--5--5-|-5--5--5--5--5--5--5--5-|
|-5--5--5--5--5--5--5--5-|-5--5--5--5--5--5--5--5-|
|-3--3--3--3--3--3--3--3-|-3--3--3--3--3--3--3--3-|



Chorus x2
         
|------------------------|------------------------|
|------------------------|------------------------|
|-7--7--7--7--7--7--7--7-|-7--7--7--7--7--7--7--7-|
|-7--7--7--7--7--7--7--7-|-7--7--7--7--7--7--7--7-|
|-5--5--5--5--5--5--5--5-|-5--5--5--5--5--5--5--5-|
|------------------------|------------------------|
[ Tab from: http://www.guitartabs.cc/tabs/l/lifehouse/spin_tab_ver_2.html ]
 
|------------------------|------------------------|
|------------------------|------------------------|
|-4--4--4--4--4--4--4--4-|-4--4--4--4--4--4--4--4-|
|-4--4--4--4--4--4--4--4-|-4--4--4--4--4--4--4--4-|
|-2--2--2--2--2--2--2--2-|-2--2--2--2--2--2--2--2-|
|------------------------|------------------------|

 
|------------------------|------------------------|
|------------------------|------------------------|
|------------------------|------------------------|
|-2--2--2--2--2--2--2--2-|-4--4--4--4--4--4--4--4-|
|-2--2--2--2--2--2--2--2-|-4--4--4--4--4--4--4--4-|
|-0--0--0--0--0--0--0--0-|-2--2--2--2--2--2--2--2-|

 
|------------------------|------------------------|
|------------------------|------------------------|
|------------------------|------------------------|
|-5--5--5--5--5--5--5--5-|-5--5--5--5--5--5--5--5-|
|-5--5--5--5--5--5--5--5-|-5--5--5--5--5--5--5--5-|
|-3--3--3--3--3--3--3--3-|-3--3--3--3--3--3--3--3-|

Verse x1
Chorus x1

Interlude x1
|-10------10--14----12---|--10-------10--14----12-|
|---10--11-------13------|----10--11-------13-----|
|------------------------|------------------------|
|------------------------|------------------------|
|------------------------|------------------------|
|------------------------|------------------------|

|10-----10-14-17-18-15---|-10------10-14-17-18-15-|
|--10-11--------------11-|---10--11---------------|
|------------------------|------------------------|
|------------------------|------------------------|
|------------------------|------------------------|
|------------------------|------------------------|

|------------------------|------------------------|------------------------|
|--------------------play this line twice on the repeat-------x2-----------|
|------------------------|------------------------|------------------------|
|-2--2--2--2--2--2--2--2-|-4--4--4--4--4--4--4--4-|-5--5--5--5--5--5--5--5-|
|-2--2--2--2--2--2--2--2-|-4--4--4--4--4--4--4--4-|-5--5--5--5--5--5--5--5-|
|-0--0--0--0--0--0--0--0-|-2--2--2--2--2--2--2--2-|-3--3--3--3--3--3--3--3-|

Chorus x3

Outro
eb|------------------------------------------------|
Bb|------------------------------------------------|
Gb|-----7--------9-9----------11-----------9-------|
Db|---7---7----8----8-----10----10-----8----8------|
Ab|-5----------------------------------------------|
Eb|------------------------------------------------|

|------------------------------------------------|
|------------------------------------------------|
|-----7----------9----------11-----------9-------|
|---7---7----8----8-----10----10-----8----8------|
|-5----------------------------------------------|
|------------------------------------------------|

|------------------------------------------------|
|------------9-9-9-9----11-11-11-11---9-9-9-9----|
|--7-7-7-7--8-8-8-8---10-10-10-10----8-8-8-8-----| x2
|-7-7-7-7----------------------------------------|
|------------------------------------------------|
|------------------------------------------------|

|-------------------------------|------------------------------------|
|-------------------------6-6-6-|------------------------------------|
|-5/7--7-7----5-5/7--7-7--7-7-7-|-5/7--7-7---5-5/7--7-7----5---5-5---|
|-5/7--7-7----5-5/7--7-7--7-7-7-|-5/7--7-7---5-5/7--7-7----5---5-5---|
|-3/5--5-5----3-3/5--5-5--------|-3/5--5-5---3-3/5--5-5----3---3-3---|
|-------------------------------|------------------------------------|

|-------------------------------|------------------------------------|
|-------------------------6-6-6-|------------------------------------|
|-5/7--7-7----5-5/7--7-7--7-7-7-|-5/7--7-7---5-5/7--7-7----5---5-5-5-|
|-5/7--7-7----5-5/7--7-7--7-7-7-|-5/7--7-7---5-5/7--7-7----5---5-5-5-|
|-3/5--5-5----3-3/5--5-5--------|-3/5--5-5---3-3/5--5-5----3---3-3-5-|
|-------------------------------|------------------------------------|

|-------------------------------|------------------------------------|
|-------------------------6-6-6-|------------------------------------|
|-5/7--7-7----5-5/7--7-7--7-7-7-|-5/7--7-7---5-5/7--7-7----5---5-5---|
|-5/7--7-7----5-5/7--7-7--7-7-7-|-5/7--7-7---5-5/7--7-7----5---5-5---|
|-3/5--5-5----3-3/5--5-5--------|-3/5--5-5---3-3/5--5-5----3---3-3---|
|-------------------------------|------------------------------------|

|-------------------------------|------------------------------------|
|-------------------------6-6-6-|----------5555----------------------|
|-5/7--7-7----5-5/7--7-7--7-7-7-|-5/7--7-7-7777----------------------|
|-5/7--7-7----5-5/7--7-7--7-7-7-|-5/7--7-7-7777----------------------|
|-3/5--5-5----3-3/5--5-5--------|-3/5--5-5---------------------------|
|-------------------------------|------------------------------------|
Comments