Lifehouse - Spin Chords & Tabs

 

Spin Chords & Tabs

Lifehouse Chords & Tabs

Version: 1 Type: Bass Tab 0 ratings
1 star 2 stars 3 stars 4 stars 5 stars
comments

Spin Bass Tab

   
Band:Lifehouse
Song:Spin
all that good legal stuff

ok..this song is actually pretty easy....the bridge part isn't as weird
as it sounds...  :P

uummm.. if you have a five string bass(like me) its standard tuning,
for a 4 string it might be drop d (dadg) but i don't really know :P

verse
on this, it sounds like he goes just a continous straight 16ths:P but i think he
does a double beat music theory type thing....he does what the bass drum does i
think :P (this isn't exact on how many times he does it, these are just the notes)

g--------------------------------------------------|
d---------------------------------11-11-11-11-111--|
a-44-44-44-44-444-11-11-11-11-111-------Eb---------|  2x
e-------C#--------------Bb-------------------------|
b--------------------------------------------------|

after 2nd time, (pre-chorus) 
g----------------------------|
d--33-33-33-44-44-44-44-44---|
a----------------------------|
e----------------------------|
b----------------------------|
[ Tab from: http://www.guitartabs.cc/tabs/l/lifehouse/spin_btab.html ]
chorus
g---------------------------------------------------------------|
d---------------------------------------------------------------|
a-444444444444444-1111111111111111------------------------------|  2x
e-------C#----------------Bb-------------------------22222222---|
b----------------------------------44444444-66666666-----F#-----|
                                      Eb        F        

g-----------------------------------------|
d---11111111111111-33333333-44444444------|
a---------Bb-----------F--------F#--------| the repeat at the end of the chorus
e-----------------------------------------|
b-----------------------------------------|

bridge

g-------------------------------------------|
d-------------------------------------------|
a-------------------------------------------|
e-----------99>5<9--------------------------|
b-2-22-22-2---------------------------------|
      C#  the 9 is also a C#


something along those lines....sounds good to me, i don't really know the four
string stuff, so i gave the notes if it helps...
Comments