Lifehouse - Sick Cycle Carousel Chords & Tabs

 

Sick Cycle Carousel Chords & Tabs

Lifehouse Chords & Tabs

Version: 3 Type: Tab 0 ratings
1 star 2 stars 3 stars 4 stars 5 stars
comments

Sick Cycle Carousel Tab

alright i just figured out parts of this song and i have no idea
what names are for these chords so i thought i'd draw em out for ya


this is the chorus

"when will this end it goes on and on...."

|----7-7-7-7-7------2-2-2-2-2----
|----7-7-7-7-7------2-2-2-2-2----
|----8-8-8-8-8------2-2-2-2-2----
|----9-9-9-9-9------4-4-4-4-4----
|----9-9-9-9-9------4-4-4-4-4----
|----7-7-7-7-7------2-2-2-2-2----


"and over and over, and over again...."
[ Tab from: http://www.guitartabs.cc/tabs/l/lifehouse/sick_cycle_carousel_tab_ver_3.html ]
----4-4-4-4-4------0-0-0-0-0---|
----5-5-5-5-5------0-0-0-0-0---|
----6-6-6-6-6------1-1-1-1-1---|
----6-6-6-6-6------2-2-2-2-2---|
----4-4-4-4-4------2-2-2-2-2---|
----4-4-4-4-4------0-0-0-0-0---|

repeat


"sick cycle carousel this is a sick cycle ya..."

|----4-4-4-4-4-------2-2-2-2-2----0-0-0-0-0----2-2-2-2-2-|
|----4-4-4-4-4-------2-2-2-2-2----0-0-0-0-0----2-2-2-2-2-|
|----4-4-4-4-4-------2-2-2-2-2----3-3-3-3-3----2-2-2-2-2-|
|----6-6-6-6-6-------4-4-4-4-4----2-2-2-2-2----4-4-4-4-4-|
|----6-6-6-6-6-------4-4-4-4-4----2-2-2-2-2----4-4-4-4-4-|
|----4-4-4-4-4-------2-2-2-2-2----0-0-0-0-0----2-2-2-2-2-|

repeat 



alright that's about all i figured out so enjoy
Comments