Lifehouse - Sick Cycle Carousel Chords & Tabs

 

Sick Cycle Carousel Chords & Tabs

Lifehouse Chords & Tabs

Version: 11 Type: Tab 0 ratings
1 star 2 stars 3 stars 4 stars 5 stars
comments

Sick Cycle Carousel Tab

   
 
 Sick cykle Carousel. (Accoustic version)

Tabbed by: Victor Lauridsen
Email: v_s_lauridsen@hotmail.com (if u know any cool songs that u want me to tab, send
me a mail about them please) 

Hey guys. I've seen a lot bad tabs on this site, so i thought that i would start making
some myself. That meens that it is my first tab, but I have already started on some
other songs like, Blink 182, stay together for the kids, starting line Best of me.

I hope that u guys soon can find more of my tabs on this site.

Have fun with this song... It's great! ;-P
||----------------------------------------||
||----------------------------0-----------||
||*--------3-2(2)-0-0-------0---0---0-----||
||*-----------------------2-------2-------||
||------3-------------3-0-----------------||
||---1---------3--------------------------||

||----------------------------------------||
||---------------------------0h1----------||
||---------------------------------0----0-||
||----------3-2(2)-0-0-2---2---------2----||
||-------3---------------0----------------||
||----1---------3-------------------------||

If shame had a face I think it would kind of look like mine
||----------------------------------------||
||----------------------------0-----------||
||*--------3-2(2)-0-0-------0---0---0-----||
||*-----------------------2-------2-------||
||------3-------------3-0-----------------||
||---1---------3--------------------------||


If it had a home would it be my eyes
||----------------------------------------||
||---------------------------0h1----------||
||---------------------------------0----0-||
||----------3-2(2)-0-0-2---2---------2----||
||-------3---------------0----------------||
||----1---------3-------------------------||

Would you believe me if I said I'm tired of this
||----------------------------------------||
||----------------------------0-----------||
||*--------3-2(2)-0-0-------0---0---0-----||
||*-----------------------2-------2-------||
||------3-------------3-0-----------------||
||---1---------3--------------------------||

Well here we go now one more time
||-1----------1-----1--1-----0--0---------||
||-1----------1-----1--1-----0--0---------||
||-2----------2-----2--2-----1--1---------||
||-3----------3-----3--3-----2--2---------||
||-3----------3-----3--3-----2--2---------||
||-1----------1-----1--1-----0--0---------||


     Am		    Em	
I tried to climb your steps
     F              C     Em7        
	I tried to chase you down
 Am                  Em       F                 C       Em7
	I tried to see how low I could get down to the ground
 Am	           Em
	I tried to earn my way
     F             C      Em7
 	I tried to Tame this mind
Am                    Em                 F        G 
 	You better believe that I have tried to beat this

     C(Special)     		     G
When will this end
G                Dm         Am
It goes on and on over and over and over again
     C(Special)		 G			       Dm
Keep spinning around I know that it won't stop
      			Am
        Till I step down from this for good

   F      G		    Am 
   
   F      G		    Am			Play CALMLY!!!
I never thought I'd end up here
      F			    G          Am
Never thought I'd be standing where I am
  F			      G            Am
I guess I kind of thought it would be easier than this
  F	       E
I guess I was wrong
(E)
Now one more time
[ Tab from: http://www.guitartabs.cc/tabs/l/lifehouse/sick_cycle_carousel_tab_ver_11.html ]
     Am		    Em	
I tried to climb your steps
     F              C     Em7        
	I tried to chase you down
 Am                  Em       F                 C       Em7
	I tried to see how low I could get down to the ground
 Am	           Em
	I tried to earn my way
     F             C      Em7
 	I tried to Tame this mind
Am                    Em                 F        G 
 	You better believe that I have tried to beat this

     C (Special)   		     G
When will this end
                 Dm          Am
It goes on and on over and over and over again
     C	(Special)	 G			       Dm
Keep spinning around I know that it won't stop
      			Am	  Em
Till I step down from this 
     Am      Em   F 
sick cycle carousel
        C           Em7
 	This is a 
        
Am            Em       F		C      Em7
	sick cyc' oh yeah
        Am    Em    F
	Sick cycle carousel
        C    Em7
 	This is a 
          Am         Em       F
	sick cyc' oh yeah
          E
	No no....
 
     F         G        Am
||----------------------------------------||	Play the chords..!!
||----------------------------0-----------||	If theres 2 guitarists,
||*--------3-2(2)-0-0-------0---0---0-----||	then play both...
||*-----------------------2-------2-------||
||------3-------------3-0-----------------||
||---1---------3--------------------------||

     F          G        Am
||----------------------------------------||
||---------------------------0h1----------||
||---------------------------------0----0-||
||----------3-2(2)-0-0-2---2---------2----||
||-------3---------------0----------------||
||----1---------3-------------------------||

     F         G        Am
||----------------------------------------||
||----------------------------0-----------||
||*--------3-2(2)-0-0-------0---0---0-----||
||*-----------------------2-------2-------||
||------3-------------3-0-----------------||
||---1---------3--------------------------||
   F                         E 
||-1----------1-----1--1-----0--0---------||
||-1----------1-----1--1-----0--0---------||
||-2----------2-----2--2-----1--1---------||
||-3----------3-----3--3-----2--2---------||
||-3----------3-----3--3-----2--2---------||
||-1----------1-----1--1-----0--0---------||



     C     		     G
When will this end
G                Dm                  Am
It goes on and on over and over and over again
     C			 G			       Dm
Keep spinning around I know that it won't stop
      			Am
        Till I step down from this for good

     C     		     G
When will this end
G                Dm                  Am
It goes on and on over and over and over again
     C			 G			       Dm
Keep spinning around I know that it won't stop
      			Am
        Till I step down from this for goo-

	C		      G
	Oooooooooood yeeaiiyeeaaaah...
	Dm		Am
		         	 from this for 
    	   C       	    G
	gooooooooood ooh oooooh 
		Dm	Am
	yeahiyeah.. yeaiyeah



Am:
||--0--||
||--1--||
||--2--||
||--2--||
||--0--||
||--0--||

Em
||--0--||
||--0--||
||--0--||
||--2--||
||--2--||
||--0--||

F
||--1--||
||--1--||
||--2--||
||--3--||
||--3--||
||--1--||




C
||--0--||
||--1--||
||--0--||
||--2--||
||--3--||
||--0--||

Em7
||-----||Normally an Em7 looks like the one	 ||--0--||
||--0--||to the right.. But in this tap, the	 ||--0--||
||--0--||one i think sounds best is the one  	 ||--0--||
||--0--||to left..				 ||--2--||
||--2--||					 ||--2--||
||-----|| 				 ||--0--||
Comments