Lifehouse - Sick Cycle Carousel Chords & Tabs

 

Sick Cycle Carousel Chords & Tabs

Lifehouse Chords & Tabs

Version: 2 Type: Bass Tab 0 ratings
1 star 2 stars 3 stars 4 stars 5 stars
comments

Sick Cycle Carousel Bass Tab

Author/Artist: Lifehouse
Title: Sick Cycle Carousel
Album: No Name Face
Transcribed by: André Suley
Email: kornnut43@hotmail.com

STANDARD TUNING
This song is simple enough that you should be able to put these parts in the 
right order.
I'm 99.9% sure this is right....

[ Tab from: http://www.guitartabs.cc/tabs/l/lifehouse/sick_cycle_carousel_btab_ver_2.html ]
Pre-Chorus starts after "Here we go now, one more time"
G|--------------|---------------|---------------------------------------------
D|--------------|---------------|---------------------------------------------
A|-----66-7-----|-----66-7-99---|---------------------------------------------
E|--4-------76--|--4------------|---------------------------------------------
    
                                                                          
Chorus
G|-----------------------------------------|----------------------------------
D|-----------------------------------------|----------------------------------
A|--2p0h2h4----------4-4-6h7p6--------1-2--|----------------------------------
E|----------2p0h2h4------------4-2-4-------|----------------------------------
                                                                              

Verse
G|----------------------|----------------------------|------------------------
D|----------------------|----------------------------|------------------------
A|--7--9--11--11-13-----|--7--9--11---13h14p13-------|------------------------
E|----------11------14--|----------------------14\---|------------------------
                                                                              

G|-------------------------------|--------------------------------------------
D|-------------------------------|--------------------------------------------
A|--7--9--11--11-13------7-6-----|--------------------------------------------
E|----------11------14-----------|--------------------------------------------
                                                                            ====
Comments