Lifehouse - Hanging By A Moment Chords & Tabs

 

Hanging By A Moment Chords & Tabs

Lifehouse Chords & Tabs

Version: 6 Type: Tab 0 ratings
1 star 2 stars 3 stars 4 stars 5 stars
comments

Hanging By A Moment Tab

   
Lifehouse, Hanging by a moment.
Tabbed by Jackie Shilling, Punkgirl85@chickclick.com.
  
Lifehouse-"Hanging by a moment"
Album: No name face
Tabbed by Jackie Shilling (thanx to Mike) 
E-mail punkgirl85@chickmail.com

Tuning: Down a half step THEN drop D (Db Ab Db Gb Bb Eb)

Intro and verses

e--------------------------------------
B--------------------------------------
G--------------------------------------
D-----0-2-0---0--------0---5-4-0-------
A---0-------0--------0---0-------------
E-0----------------0-------------------

1st chorus
(rhythm guitar)

e--------------------------------------
B--------------------------------------
G-----4---4----------0-2-0-------------
D---4---4---4------0-------0-----------
A-2-----------2--0-----------0---------

1st chorus
(lead)

e-----2------------2---3-2-------------
B-3-5---3-5-3--3-5---3-----5-3---------
G--------------------------------------
D--------------------------------------
A--------------------------------------
E--------------------------------------

2nd chorus
(rhythm guitar)
[ Tab from: http://www.guitartabs.cc/tabs/l/lifehouse/hanging_by_a_moment_tab_ver_6.html ]
e--------------------------------------
B--------------------------------------
G-4-4-4-4-2----------------------------
D-4-4-4-4-2-0-00-0-0-0-0---------------
A-2-2-2-2-0-0-00-0-0-0-0---------------
E-----------0-00-0-0-0-0---------------

2nd chorus
(lead)

e-----2------------2---3-2-------------
B-3-5---3-5-3--3-5---3-----5-3---------
G--------------------------------------
D--------------------------------------
A--------------------------------------
E--------------------------------------

Bridge
        2x            2x    
e-------------|--------------|---  
B-------------|--------------|---
G-------------|--------------|-4-
D-------------|-----7-----7--|-4-
A-----5-----5-|-4-5---4-5----|-2-
E-4-5---4-5---|--------------|---

Rhythm during solo (don't have solo tabbed yet)

e---------------------------------------
B---------------------------------------
G---------------------------------------
D-55-555-77-777-99-9999-99--------------
A-55-555-77-777-99-9999-99--------------
E-55-555-77-777-99-9999-99--------------

Intro 2x
Verse 3x
chorus1 2x
verse 6x
chorus2 4x
bridge 2x
solo part 4x
verse 6x
chorus2 6x

 
:: Ultimate Guitar Archive :: 
http://www.ultimate-guitar.com 

Comments