Lifehouse - Hanging By A Moment Chords & Tabs

 

Hanging By A Moment Chords & Tabs

Lifehouse Chords & Tabs

Version: 2 Type: Tab 0 ratings
1 star 2 stars 3 stars 4 stars 5 stars
comments

Hanging By A Moment Tab

this song's played in drop D tuning 


1st part clean
1-----------------------------------------
2-----------------------------------------
3-----------------------------------------    4x
4-------0--2--0-------------0------5--4--0
5----0-------------------0-----0----------
6-0--------------0------------------------
[ Tab from: http://www.guitartabs.cc/tabs/l/lifehouse/hanging_by_a_moment_tab_ver_2.html ]
2nd part clean
1---------------------------------------
2---------------------------------------
3---------------------------------------
4--------0--2-----4---------------------
5-----0------------------------------
6--0-----------0-----0 harmonics ----

3rd part ( clean again )
1---------
2---------3
3-4-4-4-2-2
4-4-4-4-2-0  3x
5-2-2-2-0-0
6---------0

1st part 6x

chorus (distortion)
1--------------------------------------
2------------3-----------------3-------
3----4-4-4-2-2---------4-4-4-2-2--7-6-4
4----4-4-4-2-0-5-4-----4-4-4-2-0------- repeat 3x
5----2-2-2-0-0-----5-0-2-2-2-0-0--5-4-2
6------------0-----------------0-------


THIS SONG IS MASS SWEET AND I THINK I GOT MOST OF IT
RIGHT OR AT LEAST THE INTRO
Comments