Lifehouse - Hanging By A Moment Chords & Tabs

 

Hanging By A Moment Chords & Tabs

Lifehouse Chords & Tabs

Version: 1 Type: Tab 0 ratings
1 star 2 stars 3 stars 4 stars 5 stars
comments

Hanging By A Moment Tab

Yo dudes. this is ryan. here it is. it is perfect.


1st part clean
1-----------------------------------------
2-----------------------------------------
3-----------------------------------------    4x
4-------0--2--0--------------0-----5--4---
5----0--------------0-----0-----0--------4
6-0--------------0-----0------------------
[ Tab from: http://www.guitartabs.cc/tabs/l/lifehouse/hanging_by_a_moment_tab.html ]
2nd part clean
1---------------------------------------
2---------------------------------------
3---------------------------------------
4--------0--2-----4---------------------
5-----0------------------------------
6--0-----------0-----0 harmonics ----

3rd part ( clean )
1---------
2---------3
3-4-4-4-2-2
4-4-4-4-2-0  3x
5-2-2-2-0-0
6---------0

1st part 6x

chorus ( distortion )
1--------------------------------------
2------------3-----------------3-------
3----4-4-4-2-2---------4-4-4-2-2--7-6-4
4----4-4-4-2-0-5-4-----4-4-4-2-0------- repeat 3x
5----2-2-2-0-0-----5-0-2-2-2-0-0--5-4-2
6------------0-----------------0-------


if you want the rest e-mail me at ryan_m007@hotmail.com

Comments