Lifehouse - Fool Chords & Tabs

 

Fool Chords & Tabs

Lifehouse Chords & Tabs

Version: 2 Type: Tab 0 ratings
1 star 2 stars 3 stars 4 stars 5 stars
comments

Fool Tab

   
This is a great, and hugely underrated song by Lifehouse, probably because it's not on 
of their albums. Please rate and offer improvements because I think this tab is close but 
perfect.

Intro
e-----------------------------------------------------------------|
b-----------------------------------------------------------------|
g-----------------------------------------------------------------|
d------0--------------0-------------------------------------------|
a----0-----7---9-----0-----1---3/5--------------------------------|
e--0-----0---0-----0-----0---0------------------------------------|

Verse
e-----------------------------------------------------------------|
b--8-8-----8----------------2-------------------------------------|
g--9---9-----9------3-----3---------------------------------------|
d--9-----9--------3---3-------------------------------------------|
a--7-------------1-------1----------------------------------------|
e-----------------------------------------------------------------|

Pre-chorus
F# (244322)
G# (466544)
A  (577655)
[ Tab from: http://www.guitartabs.cc/tabs/l/lifehouse/fool_tab_ver_2.html ]
F#	     G#		A
'cause I am reaching for you, but my arms aren't long enough
F#	  G#	   A
And I am running to you, If I go a little faster
F#	  G#	   A
And I am crying to you, But I can't hear my own voice
G#			F#
And I am waiting for you, And trying not to fall asleep now

Chorus: Guitar 1

C# (-466--)
A# (-133--)
G# (466---)
F# (244---)

C#
and I am clumsily dancing away this fear
A#
I am stumbling closer to you and I am
G#
Tumbling over my pride
F#
I will be a fool for you

Chorus: Guitar 2
e------4h5p4-----4h5p4-----4h5p4-----4h5p4----------------------------|
b--4-5-------4-5-------4-5-------4-5----------------------------------|
g---------------------------------------------------------------------|
d---------------------------------------------------------------------|
a---------------------------------------------------------------------|
e---------------------------------------------------------------------|

e------2h3p2-----2h3p2-----4h5p4-----5--4--2-0------------------------|
b--2-3-------2-3-------4-5--------------------------------------------|
g---------------------------------------------------------------------|
d---------------------------------------------------------------------|
a---------------------------------------------------------------------|
e---------------------------------------------------------------------|
Comments