Lifehouse - Fool Chords & Tabs

 

Fool Chords & Tabs

Lifehouse Chords & Tabs

Version: 1 Type: Tab 0 ratings
1 star 2 stars 3 stars 4 stars 5 stars
comments

Fool Tab

   
Intro:

----------------------------
----------------------------
----------------------------
-----0-2---4-----0---2-0----
---0-----0-----0---0-----1--
-0-----------0--------------


Verse:


-2---0---0---------------------
-3---0---0---------------------
-2---0---0---------------------
-0---0---0---------------------
-0---1---5---------------------
-0---1---6---------------------

Bridge (and i am reaching...) 
[ Tab from: http://www.guitartabs.cc/tabs/l/lifehouse/fool_tab.html ]
-0-0-0-0---0-0--------------------
-0-0-0-3---0-0--------------------
-4-0-4-4---0-0--------------------
-4-0-4-4---2-0--------------------
-0-0-0-0---0-2--------------------
-0-0-0-0---3-3--------------------

(just tryin not to...) 

Chorus 
-2---0---0---0---0---------------
-3---0---0---0---0---------------
-2---4---0---0---0---------------
-0---4---2---2---0---------------
-0---2---2---0---2---------------
-0---0---0---3---3---------------

play (D) until you hit 'fear' then you change to 
(004420)until you reach 'tumbling', then you change 
to (Em).then:
   000203              G
i will be a           fool

Outro = Intro



I have never sent in a tab before, but I think 
that this atleast sounds somewhat like it should. 
If you have a better version,or any sugestions please email it to 
m_deviens@hotmail.com thanks!!
Comments