Lifehouse - Everything Chords & Tabs

 

Everything Chords & Tabs

Lifehouse Chords & Tabs

Version: 6 Type: Tab 0 ratings
1 star 2 stars 3 stars 4 stars 5 stars
comments

Everything Tab

   
Everything
LifeHouse
Tabbed by Justin Platt
Contact: jaymaniac5@hotmail.com

This is a great song... u have to listen to it to get the strumming and timing.
This song even appeared on Smallville. Have fun and enjoy trying it out. ;)

Bridge:

E (--------0----------------0-----)
B (--5------5-4-0--------0---0---)
G (----6-----------2-----------2-)
D (------6-----------2-----------) Repeat until the (Chorus)
A (--4--------2-0------0---------)
E (------------------------------)

Verse 1
General tab:
     C#m7      B A2        B C#m7      E/G# A2
E (----------------------------------------------------------)
B (--5------5-4-5-------5-4--5-------5-5----5-------5-------)
G (----4----------4------------4--------------4-------4-----)
D (------2----------2------------2--------------2-------2---)
A (--4----4-4-2-0-----0-0-2--4-----4-4------0-----0-0-----0-)
E (------------------------------------4--------------------)

 
Chorus: x2
C#m7  B  A2  B
C#m7  E/G#  A2
[ Tab from: http://www.guitartabs.cc/tabs/l/lifehouse/everything_tab_ver_6.html ]
Verse 2
     C#m7      B A2        B* C#m7      E/G# A2
E (----------------------------------------------------------)
B (--5------5-4-5-------5-4--5-------5-5----5-------5-------)
G (----4----------4------------4--------------4-------4-----)
D (------2----------2------------2--------------2-------2---)
A (--4----4-4-2-0-----0-0-2--4-----4-4------0-----0-0-----0-)
E (------------------------------------4--------------------)

Chorus
C#m7  B  A2  B
C#m7  E/G#  A2

Bridge:
Guitar 1:
  C#m             A2              E               B
E (-----------------------------------------------------------------)
B (-5-5-5-5-5-5-5xxx------------------------------------------------)
G (-6-6-6-6-6-6-6xxx2-2-2-2-2-2-2xxx9-9-9-9-9-9-9xxx4-4-4-4-4-4-4xxx)
D (-6-6-6-6-6-6-6xxx2-2-2-2-2-2-2xxx9-9-9-9-9-9-9xxx4-4-4-4-4-4-4xxx)
A (-4-4-4-4-4-4-4xxx0-0-0-0-0-0-0xxx7-7-7-7-7-7-7xxx2-2-2-2-2-2-2xxx)
E (----------------X-X-X-X-X-X-X---X-X-X-X-X-X-X---X-X-X-X-X-X-X---)

Guitar 2:
E-----------------------------------------------------------------I
B-5----5-----5---5-----5-----5---5-----5-----5---5-----5-----5---I
G---4----4-----4---4-----4-----4---4-----4-----4---4-----4-----4-I
D-----2-----2---------2-----2---------2-----2---------2-----2-----I
A-4----4-----4---0-----0-----0-------------------2-----2-----2---I
E--------------------------------0-----0-----0-------------------I

C#m  A2  E  B

Chorus

Any Comments on this tab email to jaymaniac5@hotmail.com. thx
Comments