Lifehouse - Everything Chords & Tabs

 

Everything Chords & Tabs

Lifehouse Chords & Tabs

Version: 4 Type: Tab 0 ratings
1 star 2 stars 3 stars 4 stars 5 stars
comments

Everything Tab

ROCK ON LIFEHOUSE!!!!!!!!!!and take me away before i spin this!!!!!!!

Song:   Everything
Artist: Lifehouse
Album:  No Name Face
tabbed by pau

Tuning: standard (EADGBE)
Capo:   none

Transcribed by: Justin Einerson


Verse/Intro:  (with finger picking) 
|--------0------------------0---------------------------------------------|
|------5---5-4---0------2-------2-0---------------------------------------|
|----6---------6------4---4---4-------------------------------------------|
|-------------------------------------------------------------------------|
|--4-------------0--------------------------------------------------------|
|------------4------------------------------------------------------------|

[ Tab from: http://www.guitartabs.cc/tabs/l/lifehouse/everything_tab_ver_4.html ]
Quiet Chorus
|--------0-----0--0------0-------0-----------------0---------0----0-------|
|------0-0-0---4--5----5---5---5----------5--------4--0----0--------------|
|----4---------4--6--6-------6----------6---6----4-------4----------------|
|-------------------------------------------------------------------------|
|-------------------------------------4---------------0-------------------|
|--0-----------4--5----------------------------4------------------0-------|

Loud Chorus
(part I):
|--0-----0-----0--0---0-------0-----0-----0----0--------------------------|
|--5-----0-----0--0---0-------5-----0-----0----0--------------------------|
|--6-----2-----1------4-------6-----2-----x----8-- repeat ----------------|
|--6-----2-----2------4-------6-----2-----6----9--------------------------|
|--4-----0-----2------2-------4-----0-----6----9--------------------------|
|--------------0--------------------------4----7--------------------------|

(part II):
|---0----0--0----0----0--0------------------------------------------------|
|---0----0--0----5----0--0------------------------------------------------|
|---9----8--9----6----4--2-- repeat --------------------------------------|
|---9----9--7----6----4--2------------------------------------------------|
|---7----7--x----4----2--0------------------------------------------------|
|---0----0--5-------------------------------------------------------------|
Comments