Lifehouse - Everything Chords & Tabs

 

Everything Chords & Tabs

Lifehouse Chords & Tabs

Version: 3 Type: Tab 0 ratings
1 star 2 stars 3 stars 4 stars 5 stars
comments

Everything Tab

   
**************** 
* Lifehouse    *
*   Everything *
****************

 Tabbed by Vulkin_
 Sun, Oct. 26th


Frequent Chords :
_________________

C#m   -  x46650                   A     -  002220
B     -  x2xx4x  or x24440        E     -  022100
Asus2 -  x0220(0)



VERSE : 
C#m  B  Asus2

    C#m            B   Asus2
E|-------------0---------------------------0----------------|
B|-----------------4---0-------0-------0-----------0--------|
G|----------6--------------2-------2-----------2------------|
D|------6----------------------------------------------2----|
A|--4--------------2---0------------------------------------|
E|----------------------------------------------------------|



Chorus X2: 
E A C#m  B  Asus2

    E                               A
E|----------------------------------------------------------0------|
B|--------------0---------------0---2-----------2-------2-------2--|
G|----------------------1-------------------2-------2--------------|
D|----------2-------2-------2-----------2--------------------------|
A|------2---------------------------0------------------------------|
E|--0--------------------------------------------------------------|
[ Tab from: http://www.guitartabs.cc/tabs/l/lifehouse/everything_tab_ver_3.html ]
    C#m            B   Asus2   
E|-------------0---------------------------0----------------|
B|-----------------4---0-------0-------0-----------0--------|
G|----------6--------------2-------2-----------2------------|
D|------6----------------------------------------------2----|
A|--4--------------2---0------------------------------------|
E|----------------------------------------------------------|


Bridge:

                  C#m
Cause you're all I want
            A
You're all I need
            E
You're everything
     B   
Everything


--------------------------------------------
             Lyrics
--------------------------------------------


Intro : (x2 Verse)


(Verse) -  Find me here
           And speak to me
           I want to feel you
	   I need to hear you
	   You are the light
	   That's leading me
	   To the place
	   Where I find peace, again


           (x2 Verse) 

	  
  	   You are the strength
	   That keeps me walking
	   You are the hope
	   That keeps me trusting 
	   You are the life
	   To my soul
	   You are my purpose
	   You're everything 


(Chorus) - And how can I
	   Stand here with you
	   And not be moved by you
	   Would you tell me
	   How could it be
	   Any better than this, yeah 

	   
	   (x2 verse)


	   You calm the storms
	   And you give me rest
	   You hold me in your hands
	   You won't let me fall
	   You still my heart
	   And you take my breath away
	   Would you take me in 
	   Take me deeper now 


	   [x2 Chorus] 


[Bridge x4] - 'cause you're all I want
	      You're all I need 
	      You're everything
	      Everything
 

	   [x3 Chorus]


	   [x2 Verse]


+ "Semi-Chorus" - Would you tell me
 	         How could it be
 	         Any better than this 



Links : 

http://www.lifehousemusic.com/
http://www.lifehousefans.com/
----------------------------------------------------------------------------
If you have any problems, contact me to vulkin2k@wanadoo.fr.
Comments