Lifehouse - Everything Chords & Tabs

 

Everything Chords & Tabs

Lifehouse Chords & Tabs

Version: 2 Type: Tab 0 ratings
1 star 2 stars 3 stars 4 stars 5 stars
comments

Everything Tab

   
-------------------------------------------------------------------------------
			Everything - Lifehouse
-------------------------------------------------------------------------------

Tabbed by: string_liznerz	
Email:stringlizner@aol.com

Tuning:standard

Intro:(2x)

e|---------------------------------------------------------------------------|
B|--------5---------------5-------------5---------------5--------------------|
G|------6---6----------4----4---------6---6---------4-----4------------------|
D|----6-------6------6---6----6-----6-------6-4---6---6-----6----------------|
A|--4------------6-7--------------4-------------7----------------------------|
E|---------------------------------------------------------------------------|

Verse:(8x)

e|---------------------------------------------------------------------------|
B|--------5----------------5-------------------------------------------------|
G|------6---6----6-----6-----6---6-------------------------------------------|
D|----6--------------6---6-----6---------------------------------------------|
A|--4------------------------------------------------------------------------|
E|-------------4---5---------------------------------------------------------|

Repeat intro once

Verse (8x)

Chorus: (2x) chorus can be strumming using standard chords
[ Tab from: http://www.guitartabs.cc/tabs/l/lifehouse/everything_tab_ver_2.html ]
e|---------------------------------------------------------------------------|
B|--------0--------------------0---------------------------------------------|
G|------1---1----4---------2-----2---2---------------------------------------|
D|----2------------------2---2-----2-----------------------------------------|
A|-------------2-----0-------------------------------------------------------|
E|--0------------------------------------------------------------------------|
    E          B     A2 
e|---------------------------------------------------------------------------|
B|--------5-------------------0----------------------------------------------|
G|------6-------4---------2-----2---2----------------------------------------|
D|----6-----------------2---2-----2------------------------------------------|
A|--4---------2------0-------------------------------------------------------|
E|---------------------------------------------------------------------------|
    C#m       B      A2
Repeat Intro once

Verse: (8x)

Chorus

Bridge: )4X)

e|--44444----00000----00000----22222-----------------------------------------|
B|--55555----00000----00000----22222-----------------------------------------|
G|--66666----22222----11111----44444-----------------------------------------|
D|--66666----22222----22222----44444-----------------------------------------|
A|--44444----00000----22222----22222-----------------------------------------|
E|-----------xxxxx----00000----xxxxx-----------------------------------------|
    C#m      A2       E        B 

Chorus

Outro

e|---------------------------------------------------------------------------|
B|--------0--------------------0---------------------------------------------|
G|------1---1----4---------2-----2---2---------------------------------------|
D|----2------------------2---2-----2-----------------------------------------|
A|-------------2-----0-------------------------------------------------------|
E|--0------------------------------------------------------------------------|
    E          B     A2 
e|---------------------------------------------------------------------------|
B|--------5-------------------0----------------------------------------------|
G|------6-------4---------2-----2---2----------------------------------------|
D|----6-----------------2---2-----2------------------------------------------|
A|--4---------2------0-------------------------------------------------------|
E|---------------------------------------------------------------------------|
    C#m       B      A2
Comments