Lifehouse - Everything Live Chords & Tabs

 

Everything Live Chords & Tabs

Lifehouse Chords & Tabs

Version: 1 Type: Tab 0 ratings
1 star 2 stars 3 stars 4 stars 5 stars
comments

Everything Live Tab

-------------------------------------------------------------------------------
			Everything –Live Version - Lifehouse
-------------------------------------------------------------------------------

Tabbed by: Eric Miklos
Email:ejm4@uakron.edu

Tuning:standard

This is the way they performed the song live in Portland that is currently airing on 
 this is my first tab so please rate me. Thanks,

Intro/verse:

e|-----0------------------0--------|
B|-------5--------------0---0------|
G|---------6----------6-------6----|  Repeat
D|-----------6------6------------6-|
A|--4------------------------------|
E|---------------5-----------------|
Jason lifts his index finger of A and moves his middle finger to E for B

Guitar 2:
This is played throughout the intro and verse listen for the violin and the ringing on 
album version to figure out where
e|-------------|        e| ---------------|
B|-------------|        b| ---------------|
G|-------------|    and     G| ---(11)b/\-|
D|----------------------------------------|
A|--5/7--5/8------------------------------|
E|--4/6--4/7------------------------------|

[ Tab from: http://www.guitartabs.cc/tabs/l/lifehouse/everything_live_tab.html ]
Then when Jason says, “how can I” play this:
e|---------0-----------------0-----------------0----------|
B|-------0---0------------0-----0------------0---0--------|
G|-----9-------8--------8---------9-------9---------9-----|
D|---9-----------9----9-------------9---9-------------9---|
A|-7---------------7------------------0-----------------7-|
E|--------------------------------------------------------|

then back to:

e|-----0------------------0--------|
B|-------5--------------0---0------|
G|---------6----------6-------6----|  Repeat
D|-----------6------6------------6-|
A|--4------------------------------|
E|---------------5-----------------|


Pre-Chorus:
Guitar 1:
e|-0--0--0--|
B|-0--0--0--|
G|-9--8—-8--|
D|-9--9--9--|  down stroke 8x each
A|-7--7--9--|
E|-0--x--7--|

Guitar 2:
e|-0--|
B|-5--|
G|-4--|
D|----|  down stroke
A|----|
E|----|

Chorus
			“and how can I”  Strum
e|--0----0----0---0---| 0---0---0---0---0this -----0--0----|
B|--5----0----0---0---|    5---0---0---0---5chord ----0--0-|
G|--6----2----1---8---|    6---2---1---9---6twice-----2--1-|
D|--6----2----2---9---|    6---2---2---7---6then------2--2-|
A|--4----0----2---9---|    4---2---2---x---4----------0--2-|
E|--x----x----0---7---|    x---0---0---5---x----------x--0-|

He screams and then the strumming pattern changes a little towards the end.  The ending 
not like the album its distortion until the end.
God bless!!  Lifehouse rocks!!!
Comments