Lifehouse - Come Back Down Chords & Tabs

 

Come Back Down Chords & Tabs

Lifehouse Chords & Tabs

Version: 4 Type: Tab 0 ratings
1 star 2 stars 3 stars 4 stars 5 stars
comments

Come Back Down Tab

   
-----------------------------------------------------------------------------
			     Come Back Down - Lifehouse
-----------------------------------------------------------------------------
Tabbed by: Kristoffer H. Møller (khm)
Email: ondlaks@sol.dk

Tuning: Half step down 

***Intro + Verses(no Guitar 2 for verse 1)

Guitar 1:
eb|----------------|----------------|----------------|------------0-|
Bb|----3---3---3---|----3---3---3---|----3---3---3---|----3---3-----|
Gb|---0-0---0---0--|---0-0---0---0--|---0-0---0---0--|---0-0---0----|
Db|--4---4---4---4-|--4---4---4---4-|--4---4---4---4-|--4---4---4---|
Ab|-5--------------|-2--------------|----------------|--------------|
Eb|----------------|----------------|-3--------------|-0------------|

Guitar 2:

eb|----------------|----------------|----------------|--------------|
Bb|-19----------17\|-12----------10/|-19----------17\|-12-----------|
Gb|----------------|----------------|----------------|--------------|
Db|----------------|----------------|----------------|--------------|
Ab|----------------|----------------|----------------|--------------|
Eb|----------------|----------------|----------------|--------------|


***Pre-chorus:

Guitar 1 is strumming and guitar 2 is arpeggiating: 

 Em                A   
All this time is passing by
   G                  A
I think it's time to just move on


***Chorus:

Guitar 1 is strumming:

D                     G 
  When you come back down
            Em7         
If you land on your feet
            G                             D
I hope you find a way to make it back to me
                 G
When you come around
          Em7
I'll be there for you
               G
Don't have to be alone with what you're going through

Guitar 2:
[ Tab from: http://www.guitartabs.cc/tabs/l/lifehouse/come_back_down_tab_ver_4.html ]
eb|---------10--|
Bb|--7--8-------|
Gb|-------------| Repeat over each measure of the chorus
Db|-------------|
Ab|-------------|
Eb|-------------|


***Bridge:

Guitar 1 is strumming:
                                            A
From chorus: ....with what you're going through

                    Em
You're coming back down
                                             A
You say you feel lost can I help you find it
                 Em
When you come around
                                     A
From time to time we all are blinded
                    Em
You're coming back down
                                              A
You don't have to tell me what you're feeling
                                 Em
I know what you're going through

I won't be the one that lets go of you


***Solo:

Guitar 1 strumming chords outlined over tab for guitar 2's solo:

    D                     G                     D
eb|---------------------|---------------------|---------------------|
Bb|--7h8p7-10~-7h8p7----|--7h8p7-10~-7h8p7----|--7h8p7-10~-7h8p7----|
Gb|------------------7~-|------------------7~-|------------------7~-|
Db|---------------------|---------------------|---------------------|
Ab|---------------------|---------------------|---------------------|
Eb|---------------------|---------------------|---------------------|

   (Pre-chorus)                              (Chorus)
    Em        A         G         A           D
eb|---------|---------|---------|-----------|----------|
Bb|---------|---------|---------|-7-8-10-12/|-15-------|
Gb|---6-7-9-|---6-7-9-|---6-7-9-|-----------|----------|
Db|-9-------|-9-------|-9-------|-----------|----------|
Ab|---------|---------|---------|-----------|----------|
Eb|---------|---------|---------|-----------|----------|

| /  slide up
| \  slide down
| h  hammer-on
| p  pull-off
| ~  vibrato
| +  harmonic
| x  Mute note
=============================================================================
Comments