Lifehouse - Come Back Down Chords & Tabs

 

Come Back Down Chords & Tabs

Lifehouse Chords & Tabs

Version: 2 Type: Tab 0 ratings
1 star 2 stars 3 stars 4 stars 5 stars
comments

Come Back Down Tab

   
#----------------------------------PLEASE NOTE---------------------------------#
#This file is the author's own work and represents their interpretation of the #
#song. You may only use this file for private study, scholarship, or research. #
#------------------------------------------------------------------------------#

Come Back Down
Written by Jason Wade

Tab attempted by Allen

tuning: standard
Intro

(pattern repeats during the verse also)

Guitar 1
   A#m (you can play it bar on 6th fret also but I saw him play it on the first)
3x
|------------------------|----------------------|
|-----2-----2-----2------|-----2-----2-----4----|
|---1-----1-----1--------|---1-----1-----1------|
|-3-----3-----3-----4-3--|-3-----3-----3--------|
|------------------------|----------------------|
|------------------------|----------------------|
[ Tab from: http://www.guitartabs.cc/tabs/l/lifehouse/come_back_down_tab_ver_2.html ]
Guitar 2
|-13-11-------13---11---|
|-------11--------------|
|----------13-----------|
|-----------------------|
|-----------------------|
|-----------------------|

Verse
Repeat pattern for guitar 1


Chorus

Guitar 2 repeats
|-------9-|
|---------|
|-10-11---|
|---------|
|---------|
|---------|


Verse 2

[Play intro pattern throughout]

Chorus

Bridge

Solo

(F#)x3
|------------------------|
|----------9-------------|
|-10-11-10---10-11-10----|
|---------------------10-|
|------------------------|
|------------------------|

|-----------------------------------------8-9--|
|----------------------------------------------|
|---------8----------8----------8---10-11------|
|-8-10-11----8-10-11----8-10-11----------------|
|----------------------------------------------|
|----------------------------------------------|


Chorus


Should be pretty close
I hope you love this song as much as I do

Allen
wack_01@hotmail.com


Comments