Lifehouse - Breathing Chords & Tabs

 

Breathing Chords & Tabs

Lifehouse Chords & Tabs

Version: 2 Type: Tab 0 ratings
1 star 2 stars 3 stars 4 stars 5 stars
comments

Breathing Tab

   
Artist: Lifehouse 
Song: Breathing 
Album: No Face Name 
Tabbed By: Aaron AKA Teto Levesque 

This is my favorite song by Lifehouse so I decided to tab it out with 
the help of my teacher, Marc. For some reason, the first time I tried to 
submitt this, it didn't get on the website, so I'm trying again 
soeveryone who likes the song can play it. Also because too many people 
keep submitting the easy tab for "Hanging By A Moment," and I personally 
don't think we need more than ten on the site. There is a guest 
guitarist 
on this track, but if you're fast enough, you can play it with one 
guitar. 
This is 100% accurate, so good luck. 

Intro: 
e|----------------------------------------| 
b|-6----5-6-8---5-----6-5-3---3-----3--5--| 
g|-7------------5-------------3-----3--5--| 
d|-7------------5-------------3-----3--5--| 
a|-5------------3-------------1-----1--3--| 
E|----------------------------------------| 
^These three ^ chords ring ^ out while the 
second guitarist fingers the other notes. 

Now play it over again. 

Verse (strum slowly and lightly): 
e|------------------------| 
b|-6-6-6-6-5-5-5-5-3-3-3-3| 
g|-7-7-7-7-5-5-5-5-3-3-3-3| 
d|-7-7-7-7-5-5-5-5-3-3-3-3| 
a|-5-5-5-5-3-3-3-3-1-1-1-1| 
E|------------------------| 
[ Tab from: http://www.guitartabs.cc/tabs/l/lifehouse/breathing_tab_ver_2.html ]
Small Pre-Chorus Music: 
Guitar 1 
e|-1--0---------| 
b|-------3--0--1| 
g|--------------| 
d|--------------| 
a|--------------| 
E|--------------| 
Guitar 2 
e|--------------| 
b|--------------| 
g|--------------| 
d|--------------| 
a|-1--0---------| 
E|-------3--0--1| 

Chorus: 
(the chords are right, but the rhythm's off) 
e|-1--1--------------------------------| 
b|-1--1--1-1-1-1--3-3-3-3--3-0--6-6-6-6| 
d|-2--2--x-x-x-x--3-3-3-3--3-0--7-7-7-7| 
g|-3--3--2-2-2-2--3-3-3-3--3-0--7-7-7-7| 
a|-3--3--3-3-3-3--1-1-1-1--0-0--5-5-5-5| 
E|-1--1--0-0-0-0-----------------------| 
^release from the chord 
completely here to give you time to move to the next chord 

Chorus Continued: 
e|-----------------| 
b|-5-5-5-5--3-3-3-3| 
g|-5-5-5-5--3-3-3-3| 
d|-5-5-5-5--3-3-3-3| 
a|-3-3-3-3--1-1-1-1| 
E|-----------------| 
Now go back and play the first part of the chorus again. 
The next time you get to the last chord (-1333-), play 
the intro again. 

--------------------------------------------------------- 
To help you get the rhythm better, I relisted the chorus 
chords under th lyrics said while that chord is strumed: 

(133211) 
"cuz I am hanging on-" 

(032x1-) 
"every word yuo say and-" 

(-1333-) (-0333-) (-0000--) 
even if you don't want to-" 

(-5776-) 
"speak tonight, that's" 

(-3555-) 
"alright...alright" 
(-1333-) (-3555-) 
"with me." 

I hope I helped a few people out. E-mail me at 
Zer0Toleranze@hotmail.com (that's a zero in the 
Zer0, not an 'Oh'). Peace out
Comments