Lifehouse - Breathing Chords & Tabs

 

Breathing Chords & Tabs

Lifehouse Chords & Tabs

Version: 1 Type: Tab 0 ratings
1 star 2 stars 3 stars 4 stars 5 stars
comments

Breathing Tab

   
##################################################################################
# This file is the author's own work and represents their interpretation of the  #
# song. You may only use this file for private study, scholarship, or research.  #
##################################################################################

I love this song so much; Lifehouse, P.O.D, and Third Day are about the only
Christian bands left who know how to write pure music; and make it awesome! This
is overall a simple song to play, the intro may need two guitars.



Intro (this is played through out the song)
  Em  Dsus2  Csus2   Dsus2  Em  Dsus2   Csus2  B
E|-2-3-5-|-3-2-0-|-------|-------|-2-3-5-|-3-2-0-|-------|-------|
B|-------|-------|-------|-------|-------|-------|-------|-------|
G|-------|-------|-------|-------|-------|-------|-------|-------|
D|-------|-------|-------|-------|-------|-------|-------|-------|
A|-------|-------|-------|-------|-------|-------|-------|-------|
E|-------|-------|-------|-------|-------|-------|-------|-------|

Verse

KEY
     B     Dsus2   Csus2    Em     Cadd9     D     F   F#    C
E|---X---|---0---|---3---|---0---|---3---|---3---|-1-|-2-|---0---|
B|---4---|---3---|---1---|---2---|---3---|---3---|-1-|-2-|---1---|
G|---4---|---2---|---0---|---2---|---0---|---2---|-2-|-3-|---0---|
D|---4---|---0---|---0---|---0---|---2---|---0---|-3-|-4-|---2---|
A|---2---|---X---|---3---|---0---|---3---|---X---|-3-|-4-|---3---|
E|---X---|---X---|---X---|---0---|---X---|---X---|-1-|-2-|---X---|

I'm almost sure it's played on a 12-string. But I saw a live video and Jason Wade
was using just a 6-string, but the chords are all right.

Email me at Leader_of_Men8@hotmail.com and or fixes.


**************************************************************************************************************


**************************************************************************************************************


Artist: Lifehouse
Song: Breathing
Album: No Name Face

Intro:
E-0-1--3-----1-0---------||
B-----------------3------||
G------------------------||
D------------------------||
A------------------------||
E------------------------||


Bob Muzzy
bobbo@bobboonline.com
BobboOnline.com


**********************************************************************************************************

**********************************************************************************************************


Lifehouse-breathing

I tabbed this song out by ear, but there may be some mistakes because this is my very first tab and I am only 15 (that should tell you something)!The 1 means first fret after the capo 
(just letting those that don't know,..know) ." email me @ jsd_xxx@hotmail.com about whatcha think!"

Standard Tuning         -        CAPO on 5th FRET

INTRO

 E:---------------------------------------------------------|
 B:----1---0h1--3--------3h1--0-----------------------------|
 G:----2----------------------------------------------------|
 D:----2----------------------------------------------------|
 A:---------------------------------------------------------|
 E:---------------------------------------------------------|
[ Tab from: http://www.guitartabs.cc/tabs/l/lifehouse/breathing_tab.html ]
 CHORDS
     Am            G7            F            C              
e:--------------------------------------------------------------|
B: --1--------------1------------1------------1-----------------|
G:---2--------------0------------2----------- 0-----------------|
D:---2--------------0------------3------------2-----------------|
A:------------------2-------------------------3-----------------|
E:------------------3-------------------------------------------|


**********************************************************************************************************

**********************************************************************************************************



Lifehouse-breathing

I tabbed this song out by ear, but there may be some mistakes because this is my very first tab and I am only 15 (that should tell you something)! Remember: 1 means the first fret after the capo(just letting you know)

Standard Tuning         -        CAPO on 5th FRET

INTRO

 E:-------------------------------------------------------------|
 B:----1---0h1--3--------3h1--0---------------------------------|
 G:----2--------------------------------------------------------|
 D:----2--------------------------------------------------------|
 A:-------------------------------------------------------------|
 E:-------------------------------------------------------------|

 CHORDS
       Am              G7              F               C              
e:--------------------------------------------------------------|
B: --1--------------1------------1------------1-----------------|
G:---2--------------0------------2----------- 0-----------------|
D:---2--------------0------------3------------2-----------------|
A:------------------2------------------------ 3-----------------|
E:----------------- 3-------------------------------------------|


*****************************************************************************************************************

*****************************************************************************************************************


Lifehouse-breathing

I tabbed this song out by ear, but there may be some mistakes because this is my very first tab and I am only 15 (that should tell you something)! Remember: 1 means the first fret after the capo(just letting you know)

Standard Tuning         -        CAPO on 5th FRET

INTRO

 E:-------------------------------------------------------------|
 B:----1---0h1--3--------3h1--0---------------------------------|
 G:----2--------------------------------------------------------|
 D:----2--------------------------------------------------------|
 A:-------------------------------------------------------------|
 E:-------------------------------------------------------------|

 CHORDS
       Am              G7              F               C              
e:--------------------------------------------------------------|
B: --1--------------1------------1------------1-----------------|
G:---2--------------0------------2----------- 0-----------------|
D:---2--------------0------------3------------2-----------------|
A:------------------2------------------------ 3-----------------|
E:----------------- 3-------------------------------------------|
Comments