Lifehouse - Blind Chords & Tabs

 

Blind Chords & Tabs

Lifehouse Chords & Tabs

Version: 1 Type: Tab 0 ratings
1 star 2 stars 3 stars 4 stars 5 stars
comments

Blind Tab

   
CHORD CHART (in order of appearance):
A        = x02220
E        = 022100
D        = xx0232
F#m      = 244222
Asus2/Ab = x00210


Ok the trick is to move your pinky up 2 frets higher than the A string, on the D string, 
the VERSES.

Verses:

e|----------------------0---------------------|
B|----------------------0---------------------|
G|----------------------1------(x2------------|
D|-7--9--6--8--11-9-11--2---------------------|
A|-7--7--6--6--x--x--x--2---------------------|
E|-5--5--4--4--9--7--7--0---------------------|

Repeat this for the verse. The strumming isn't shown
but it's very very easy for this song.
[ Tab from: http://www.guitartabs.cc/tabs/l/lifehouse/blind_tab.html ]
**NOTE: to make the verses sound right, the 577xxx and 579xxx you must use your:

Index  = 5 (E)
Middle = 7 (A)
Ring   = 7 (D)
Pinky  = 9 (D) << Do little hammers while strumming with
				your pinky while playing. This is how
				he plays it in the video and it also
				sounds just like this, and the 108FM
				mp3 version.


Chorus:
A, E, D, E
A, E, D, E

Post Chorus ("And I loved you more..."):
F#m, D, A, Asus2/Ab
F#m, D, A, Asus2/Ab

Solo [In between Verses and Chorus']:
e|---------------|
B|---------------|
G|---------------|
D|-11--18--13----|  For this part here, strum the chords
A|--x---x---x----|  just like the song.
E|--9--16--11----|
Comments