Lifehouse - Blind Chords & Tabs

 

Blind Chords & Tabs

Lifehouse Chords & Tabs

Version: 2 Type: Bass Tab

Blind Bass Tab

----------------------------------------------------------------------------
			     Blind - Lifehouse
----------------------------------------------------------------------------

Tabbed By : Kelly Lien
e-mail: hockey.shorty@gmail.com
Tuning: Drop D

Verse 2x 
G|----------------------|
D|----------------------|
A|---0------------------|
D|-------4---0---2------|

I was young but I wasn’t naïve
I was helpless as you turned around to leave
And still I have the pain I have to carry
A past so deep that even you could not bury if you tried…

Pre-Chorus 4x
G|----------------------|
D|---0-----0-0-----0-0--|  
A|------0-------0-------|
D|----------------------|

Oh… 

Chorus (beginning)
G|-----------------------------------------|
D|-------2---0---2----------0---2---0---2--|
A|---0----------------0---4----------------|
D|-----------------------------------------|

After all this time
I never thought we’d be here
Never thought we’d be here
And my love for you is blind
But I couldn’t make you see it
Couldn’t make you see it

Chorus (end) 
G|------------------------------------|
D|---------------0----4-----6-7-6--2--|
A|-------0---4------------------------|            
D|---4--------------------------------|

And I love you more than you’ll ever know

G|-----------------------------------|
D|---------------0----4-----6-7---2--|
A|-------0---4-----------------------|            
D|---4-------------------------------|

And part of me died when I let you go

G|----------------------|
D|---0-----0-0-----0-0--|  
A|------0-------0-------|
D|----------------------|


Verse 2x
G|-----------------------|
D|-----------------------|
A|---0-------------------|
D|-------4---0---2-------|

And I fall asleep only in hopes of dreaming 
That everything would be like it was before
But nights like this it seems are slowly fleeting
They disappear as reality is crashing to the floor
[ Tab from: http://www.guitartabs.cc/tabs/l/lifehouse/blind_btab_ver_2.html ]
Pre-Chorus 3x
G|------------------------|
D|---0-----0-0-----0-0----|  
A|------0-------0---------|
D|------------------------|

Oh…..

Chorus (beginning)
G|--------------------------------------------|
D|-------2---0---2----------0---2---0---2-----|
A|---0----------------0---4-------------------|
D|--------------------------------------------|

After all this time
I never thought we’d be here
Never thought we’d be here
And my love for you is blind
But I couldn’t make you see it
Couldn’t make you see it

Chorus (end) 
G|--------------------------------------|
D|---------------0----4-----6-7-6--2----|
A|-------0---4--------------------------|            
D|---4----------------------------------|

And I love you more than you’ll ever know

G|-------------------------------------|
D|---------------0----4-----6-7---2----|
A|-------0---4-------------------------|            
D|---4---------------------------------|

And part of me died when I let you go

Bridge

2x
G|------------------------|
D|---0-----0-0-----0-0----|  
A|------0-------0---------|
D|------------------------|

2x
G|------------------------|
D|------------------------|  
A|---2-----2-2-----2-2----|
D|------4------4----------|

2x
G|-----------------------------------|
D|-----------------------------------|  
A|-----------------------------------|
D|---4--0--4-4---0-4-4----------------|

G|-----------------------------------|
D|-----------0--2----2-2----2-2------|  
A|--------4--------2-------2---------|
D|---2-------------------------------|

No Bass until Chorus (End)

G|--------------------------------------|
D|---------------0----4-----6-7-6--2----|
A|-------0---4--------------------------|            
D|---4----------------------------------|

And I love you more than you’ll ever know

G|-------------------------------------|
D|---------------0----4-----6-7-6--2---|
A|-------0---4-------------------------|            
D|---4---------------------------------|

And part of me died when I let you go

7x
G|------------------------|
D|---0-----0-0-----0-0----|  
A|------0-------0---------|
D|------------------------|