Lifehouse - Blind Chords & Tabs

 

Blind Chords & Tabs

Lifehouse Chords & Tabs

Version: 1 Type: Bass Tab

Blind Bass Tab

Intro:
Listen the song, wait for enter.
Verse
E--5-5-5-5-----------------------------|
A----------9-9-9-9--5-5-5-5--7-7-7-7---|
D--------------------------------------|
G--------------------------------------|
Repeat this, all the verse.
Then

E-----------------|
A---5-5-5-5-5-----|  Several times
D-----------------|
G-----------------|

Chorus.

E--5-5-5-5-----------------------------|
A----------7-7-7-7--5-5-5-5--7-7-7-7---|
D--------------------------------------|
G--------------------------------------|
Repeat this two times
Then

E--------------------5-5-5-5-----------|
A---9-9-9-9--5-5-5-5----------7-7-7-7--|
D--------------------------------------|
G--------------------------------------|

E-----------------|
A---5-5-5-5-5-----|  Several times
D-----------------|
G-----------------|

Verse again.

E--5-5-5-5-----------------------------|
A----------9-9-9-9--5-5-5-5--7-7-7-7---|
D--------------------------------------|
G--------------------------------------|

Then
E-----------------|
A---5-5-5-5-5-----|  Several times
D-----------------|
G-----------------|

Chorus again.
[ Tab from: http://www.guitartabs.cc/tabs/l/lifehouse/blind_btab.html ]
E--5-5-5-5-----------------------------|
A----------7-7-7-7--5-5-5-5--7-7-7-7---|
D--------------------------------------|
G--------------------------------------|
Repeat this two times
Then

E--------------------5-5-5-5-----------|
A---9-9-9-9--5-5-5-5----------7-7-7-7--|
D--------------------------------------|
G--------------------------------------|

Solo of the guitar.
this
E----------------------|
A---5-5-5----9---7-----| Several times
D----------------------|
G----------------------|

Or this

E-----------------|
A---5-5-5-5-5-----|  Several times
D-----------------|
G-----------------|

And the

A---5-5-5

Chorus again.

E--5-5-5-5-----------------------------|
A----------7-7-7-7--5-5-5-5--7-7-7-7---|
D--------------------------------------|
G--------------------------------------|
Repeat this two times
Then

E--------------------5-5-5-5-----------|
A---9-9-9-9--5-5-5-5----------7-7-7-7--|
D--------------------------------------|
G--------------------------------------|
When finish this is four times.

And finish with this

E-----------------|
A---5-5-5-5-5-----|  Several times
D-----------------|
G-----------------|

It's all, is very easy.