Lifehouse - Blind Acoustic Chords & Tabs

 

Blind Acoustic Chords & Tabs

Lifehouse Chords & Tabs

Version: 1 Type: Tab 0 ratings
1 star 2 stars 3 stars 4 stars 5 stars
comments

Blind Acoustic Tab

   
-------------------------------------------------------------------------------
			     blind - lifehouse
-------------------------------------------------------------------------------
Tabbed by: r chi
Email:angelus121@gmail.com

Tuning: standard
ok, so this song is mostly strumming.
this version is the one they did at live@vh1.
they only had an acoustic guitar, a bass guitar and a snare.
it's pretty simple once you passed the first verse.
and i timed the chord movements to the lyrics
so it should be easy to follow.
have fun.

intro:   
e|--------------------------------------0-0-0---]
B|--------------------------------------0-0-0---]
G|-----------6------------2--11\-9-/11--1-2-1---]  2x
D|-----9-7-9-7-9-7--6-4-6-4---x--x--x---2-2-2---] 
A|-----7-7-7-7-7-7--4-4-4-4---9\-7-/9---2-2-2---]
E|-----5-5-5---5-5--2-2-2-2-------------0-0-0---]


verse1

    I was young but I wasn't naive   I watched helpless
e|------------------------------------------------------]
B|------------------------------------------------------]
G|---------------6---------------2--11\----9-----/11----]  
D|--9--7--9------7--9--7--6--4-6-4---x-----x------x-----] 
A|--7--7--7------7--7--7--4--4-4-4---9\----7-----/9-----]
E|--5--5--5---------5--5--2--2-2-2----------------------]

As you turned around to leave
e|----0---------0--------0---]
B|----0---------0--------0---]
G|----1---------2--------1---]  
D|----2---------2--------2---] 
A|----2---------2--------2---]
E|----0---------0--------0---]

And still I have the pain I have to carry
e|------------------------------------------]
B|------------------------------------------]
G|----------------6------------------2------]  
D|-----9--7--9----7----9--7---6---4--6--4---] 
A|-----7--7--7----7----7--7---4---4--4--4---]
E|-----5--5--5---------5--5---2---2--2--2---]

 A past so deep That even you could not bury 
e|-------------------]
B|-------------------]
G|--11\-9-/11-----9--]  
D|---x--x--x------x--] 
A|---9\-7-/9------7--]
E|-------------------]

   if you tried   woo woo woo
e|-----------------------------]
B|-----------------------------]
G|----------7-----16---13--11--]
D|----------x------x----x---x--]
A|----------5-----14---11---9--]
E|-----------------------------]

refrain
   After all this time  I never thought we'd be here      
e|--0--------------0-0------2-----]
B|--2--------------0-0------3-----]
G|--2--------------2-1------2-----]
D|--2--------------2-2------0-----]
A|--0--------------2-2------x-----]
E|-----------------0-0------2-----]

  never thought we'd be here
e|--0----------------0---------]
B|--2----------------0---------]
G|--2----------------1---------]
D|--2----------------2---------]
A|--0----------------2---------]
E|-------------------0---------]

  when my love for you is blind  But I couldn't make you see it
e|----------0--------------0-0------------2-----]
B|----------2--------------0-0------------3-----]
G|----------2--------------2-1------------2-----]
D|----------2--------------2-2------------0-----]
A|----------0--------------2-2------------x-----]
E|-------------------------0-0------------2-----]

   Couldn't make you see it
e|----2----------------0---------]
B|----2----------------0---------]
G|----2----------------1---------]
D|----4----------------2---------]
A|----4----------------2---------]
E|----2----------------0---------]

   That I loved you more  Than you'll ever know
e|------2-------------2---------------0-----0----]
B|------2-------------3---------------2-----2----]
G|------2-------------2---------------2-----2----]
D|------4-------------0---------------2-----2----]
A|------4-----------------------------0-----x----]
E|------2-----------------------------------4----]

   And part of me died   When I let you,
e|------2----------2----------0-----0-0---]
B|------2----------3----------2-----0-0---]
G|------2----------2----------2-----2-1---]
D|------4----------0----------2-----2-2---]
A|------4---------------------0-----2-2---]
E|------2---------------------------0-0---]

     ...go
e|-------------------------]
B|-------------------------]
G|------7-----16---13--11--]
D|------x------x----x---x--]
A|------5-----14---11---9--]
E|-------------------------]


verse2

   I would fall asleep Only in hopes of dreaming  That everything
e|-------------------------------------------------------------------]
B|-------------------------------------------------------------------]
G|-----------------6-------------------------2---------11\-9--/11----]  
D|--9---7---9------7------9--7----6--4---6---4----------x--x---x-----] 
A|--7---7---7------7------7--7----4--4---4---4----------9\-7--/9-----]
E|--5---5---5-------------5--5----2--2---2---2-----------------------]

   Would be like it was before
e|-----------0-------0-----0---]
B|-----------0-------0-----0---]
G|-----------1-------2-----1---]  
D|-----------2-------2-----2---] 
A|-----------2-------2-----2---]
E|-----------0-------0-----0---]

    But nights like this  It seems are slowly fleeting
e|----------------------------------------------------------------]
B|----------------------------------------------------------------]
G|--------------------------6-----------------------2-------------]  
D|-------9------7----9------7--9----7----6--4---6---4-------------] 
A|-------7------7----7------7--7----7----4--4---4---4-------------]
E|-------5------5----5---------5----5----2--2---2---2-------------]
[ Tab from: http://www.guitartabs.cc/tabs/l/lifehouse/blind_acoustic_tab.html ]
  They disappear as reality is crashing to the, floor
e|----------------------]
B|----------------------]
G|-----11\-9-/11-----9--]  
D|------x--x--x------x--] 
A|------9\-7-/9------7--]
E|----------------------]

       ...floor   woo woo woo
e|-----------------------------]
B|-----------------------------]
G|----------7-----16---13--11--]
D|----------x------x----x---x--]
A|----------5-----14---11---9--]
E|-----------------------------]

refrain
   After all this time  I never thought we'd be here      
e|--0--------------0-0------2-----]
B|--2--------------0-0------3-----]
G|--2--------------2-1------2-----]
D|--2--------------2-2------0-----]
A|--0--------------2-2------x-----]
E|-----------------0-0------2-----]

  never thought we'd be here
e|--0----------------0---------]
B|--2----------------0---------]
G|--2----------------1---------]
D|--2----------------2---------]
A|--0----------------2---------]
E|-------------------0---------]

  when my love for you is blind  But I couldn't make you see it
e|----------0--------------0-0------------2-----]
B|----------2--------------0-0------------3-----]
G|----------2--------------2-1------------2-----]
D|----------2--------------2-2------------0-----]
A|----------0--------------2-2------------x-----]
E|-------------------------0-0------------2-----]

   Couldn't make you see it
e|----2----------------0---------]
B|----2----------------0---------]
G|----2----------------1---------]
D|----4----------------2---------]
A|----4----------------2---------]
E|----2----------------0---------]

   That I loved you more  Than you'll ever know
e|------2-------------2---------------0-----0----]
B|------2-------------3---------------2-----2----]
G|------2-------------2---------------2-----2----]
D|------4-------------0---------------2-----2----]
A|------4-----------------------------0-----x----]
E|------2-----------------------------------4----]

   And part of me died   When I let you,
e|------2----------2----------0-----0-0---]
B|------2----------3----------2-----0-0---]
G|------2----------2----------2-----2-1---]
D|------4----------0----------2-----2-2---]
A|------4---------------------0-----2-2---]
E|------2---------------------------0-0---]

     ...go(instrumental)
e|------------2--2--0--]
B|------------2--3--0--]
G|------7-----2--2--1--]
D|------x-----4--0--2--]
A|------5-----4-----2--]
E|------------2-----0--]

refrain
  After all this why  Would you ever wanna leave
e|--0------------0-0-------------2-----]
B|--2------------0-0-------------3-----]
G|--2------------2-1-------------2-----]
D|--2------------2-2-------------0-----]
A|--0------------2-2-------------x-----]
E|---------------0-0-------------2-----]

  Maybe you could not believe it
e|-------0----------------0---------]
B|-------2----------------0---------]
G|-------2----------------1---------]
D|-------2----------------2---------]
A|-------0----------------2---------]
E|------------------------0---------]

  That my love for you is blind But I couldn't make you see it
e|----------0--------------0-0------------2-----]
B|----------2--------------0-0------------3-----]
G|----------2--------------2-1------------2-----]
D|----------2--------------2-2------------0-----]
A|----------0--------------2-2------------x-----]
E|-------------------------0-0------------2-----]

   Couldn't make you see it
e|----2----------------0---------]
B|----2----------------0---------]
G|----2----------------1---------]
D|----4----------------2---------]
A|----4----------------2---------]
E|----2----------------0---------]

   That I loved you more  Than you'll ever know
e|------2-------------2---------------0-----0----]
B|------2-------------3---------------2-----2----]
G|------2-------------2---------------2-----2----]
D|------4-------------0---------------2-----2----]
A|------4-----------------------------0-----x----]
E|------2-----------------------------------4----]

   And part of me died   When I let you go
e|------2----------2----------0---------0-0---]
B|------2----------3----------2---------0-0---]
G|------2----------2----------2---------2-1---]
D|------4----------0----------2---------2-2---]
A|------4---------------------0---------2-2---]
E|------2-------------------------------0-0---]

     ...go
e|-------------------------]
B|-------------------------]
G|------7-----16---13--11--]
D|------x------x----x---x--]
A|------5-----14---11---9--]
E|-------------------------]


   That I loved you more  Than you'll ever know
e|------2-------------2---------------0-----0----]
B|------2-------------3---------------2-----2----]
G|------2-------------2---------------2-----2----]
D|------4-------------0---------------2-----2----]
A|------4-----------------------------0-----x----]
E|------2-----------------------------------4----]

   And part of me died   When I let you go
e|------2----------2----------0---------0-0---]
B|------2----------3----------2---------0-0---]
G|------2----------2----------2---------2-1---]
D|------4----------0----------2---------2-2---]
A|------4---------------------0---------2-2---]
E|------2-------------------------------0-0---]

     ...go
e|-------------------------]
B|-------------------------]
G|------7-----16---13--11--]
D|------x------x----x---x--]
A|------5-----14---11---9--]
E|-------------------------]
                (hold this last chord)
e|------------------]
B|------------------]
G|-----16---13--11--]
D|------x----x---x--]
A|-----14---11---9--]
E|------------------]


| /  slide up
| \  slide down
| h  hammer-on
| p  pull-off
| ~  vibrato
| +  harmonic
| x  Mute note
Comments