Life Of Agony - My Mind Is Dangerous Chords & Tabs

 

My Mind Is Dangerous Chords & Tabs

Life Of Agony Chords & Tabs

Version: 1 Type: Tab 0 ratings
1 star 2 stars 3 stars 4 stars 5 stars
comments

My Mind Is Dangerous Tab

   
My mind is dangerous

BY LIFE OF AGONY
from album 'soul searching sun'

transcribed by Christian Reindel (creindel@gmx.de)
any questions or corrections- e-mail me

TUNE DOWN ONE WHOLE STEP

mainchords - play the whole song except the little interlude    

    F        C         G
D:|-1--------0---------3--------|
A:|-1--------1---------3--------|
F:|-3--------0---------0--------|
C:|-3--------1---------0--------|
G:|-3--------3---------2--------|
D:|-1------------------3--------|
   
Intro: F   C    G
         
I look in the mirror               
and guess what I see             
A baby blue eyed spirit                 
who seeks your everything
[ Tab from: http://www.guitartabs.cc/tabs/l/life_of_agony/my_mind_is_dangerous_tab.html ]
My mind is chaotic
Unless i choose to be free
Sometimes I just can't help myself
Sometimes I just can't help myself

My mind is dangerous
That's who I'll always be
My mind is dangerous
That's who I'll always be

Hideous devastations
Lifeless serenity
My abstract emotions
Somehow get the best of me
Lord take away my sorrow
Lord take away my pain
Erasing life tomorrow
Ain't the motive to the game
 
My mind is...

interlude - 4 times
    Bb       C         G
D:|-1--------0---------3--------|
A:|-3--------1---------3--------|
F:|-3--------0---------0--------|
C:|-3--------1---------0--------|
G:|-1--------3---------2--------|
D:|--------------------3--------|

Erasing life tomorrow                
Ain't the motive to the game

back to mainchords

That's it.
Comments