Life Of Agony - Lets Pretend Chords & Tabs

 

Lets Pretend Chords & Tabs

Life Of Agony Chords & Tabs

Version: 2 Type: Tab 0 ratings
1 star 2 stars 3 stars 4 stars 5 stars
comments

Lets Pretend Tab

              ***** Let's Pretend by Life of Agony *****
                      From the Ugly Album (track 5)

Tabbed by Daan Willems, Holland (email: Wiber@pop.pi.net)

Tune The Guitar 1 step down

Notation Legend:
----------------
 /     : pick slide
 x     : palm muted chord


Intro
|---------------------------|
|---------------------------|
|---------------------------|
|--10-10-10-10-10-10-10-10--|
|--10-10-10-10-10-10-10-10--|
|---8--8--8--8--8--8--8--8--|

Riff 1
|-----------------------------------------------------------------
|-----------------------------------------------------------------
|-----------------------------------------------------------------
|-10-10-10-10-10-10-10-10-10-10-10-10-10-10-10-10-7-7-7-7-7-7-7-7-
|-10-10-10-10-10-10-10-10-10-10-10-10-10-10-10-10-7-7-7-7-7-7-7-7-
|--8--8--8--8--8--8--8--8--8--8--8--8--8--8--8--8-5-5-5-5-5-5-5-5-
[ Tab from: http://www.guitartabs.cc/tabs/l/life_of_agony/lets_pretend_tab_ver_2.html ]
------------------------------------------------------------------
------------------------------------------------------------------
------------------------------------------------------------------
-7-7-7-7-7-7-7-7-8-8-8-8-8-8-8-8-8-8-8-8-8-8-8-8-5-5-5-5-5-5-5-5--
-7-7-7-7-7-7-7-7-8-8-8-8-8-8-8-8-8-8-8-8-8-8-8-8-5-5-5-5-5-5-5-5--
-5-5-5-5-5-5-5-5-6-6-6-6-6-6-6-6-6-6-6-6-6-6-6-6-3-3-3-3-3-3-3-3-- 

------------------|
------------------|
------------------|
-5-5-5-5-5-5-5-5--|
-5-5-5-5-5-5-5-5--|
-3-3-3-3-3-3-3-3--|

Fill 1                       Fill 2
|-----------------|          |--------------------------|
|-----------------|          |--------------------------|
|-----------------|          |--------------------------|
|-3------------/--|          |--------------------------|   
|-3------------/--|          |--------------------------|   
|-1------------/--|          |-8\--5---6---3---1--------|

Riff 2
|-------------------------------------------------------------|
|-------------------------------------------------------------|
|-------------------------------------------------------------|
|--5-5-5-5-5-------2-2-2-2-2-------3-3-3-3-3-------3-3-3-3-3--|
|--5-5-5-5-5-------2-2-2-2-2-------3-3-3-3-3-------3-3-3-3-3--|
|--3-3-3-3-3-------0-0-0-0-0-------1-1-1-1-1-------1-1-1-1-1--|
                         
End
|------------|
|------------|
|------------|
|--3---------|
|--3---------|
|--1---------|
           
Song:
-----

Intro   8x   
Riff 1  2x
Fill 1  1x
Riff 1  2x
Fill 1  1x
Riff 1  2x
Fill 1  1x
Riff 1  2x
Fill 2  1x
Riff 2  4x
Riff 1  4x (first 2 times with solo, then just normal)
End     1x
Comments